Oops, an error
Loading. Please wait.

Words Bass Tab

version 2
version 2

Whole song

10 views 1 this week
no commentswrite comment
1 2 3 4 5
3 more votes to show rating
add to favorites
launch autoscroll
font size
0
reset
guitar tuner
Autoscroll
slow
fast
+/-
esc
set tempo
stop
Help us to improve Ultimate-Guitar.com Take our survey!
×
Author
Difficulty
novice
Tabbed by: 6METAL6BASSIST6
E-mail: petergriffinav@gmail.com

Tuning: EADG

First recorded version.

G|------------6-------------------------------6-------------------|
D|----------------7---6---------------------------7---6-----------| x5
A|4-----------------------7---6---4-----------------------7---6---|
E|----------------------------------------------------------------|

G|----------------------------------------------------------------|
D|----------------7---6---------------------------7---6-----------|
A|4-----------4-----------7---6---4---4---4---4-----------7---4---|
E|----------------------------------------------------------------|

0:25

G|----------------------------------------------------------------|
D|----------------------------------------------------------------|
A|5---5-----------5---5-----------5---5-----------5---5-----------|
E|------------5---------------5---------------5---------------4---|

G|----------------------------------------------------------------|
D|----------------------------------------------------------------|
A|4---4-----------4---4-----------4---4-----------4---4-----------|
E|------------4---------------4---------------4---------------5---|

G|----------------------------------------------------------------|
D|----------------------------------------------------------------|
A|5---5-----------5---5-----------5---5-----------5---5-----------|
E|------------5---------------5---------------5---------------2---|

G|----------------------------------------------------------------|
D|----------------------------------------------------------------|
A|2---2-----------2---2-----------2---2-----------2---2-----------|
E|------------2---------------2---------------2---------------2---|

G|--------------------------------|
D|----------------------------4---|
A|2-------2-------2---4---6-------|
E|--------------------------------|

0:41

G|----------------------------------------------------------------|
D|----------------------------2-------------------------------2---|
A|------------2---0---2---4-------------------2---0---2---4-------|
E|0---2---4-----------------------0---2---4-----------------------|

G|----------------------------------------------------------------|
D|----------------------------2-----------------------------------|
A|------------2---0---2---4-----/-4---4---4---4---4---4-----------|
E|0---2---4-----------------------------------------------4-\-----|

G|----------------------------------------------------------------|
D|----------------------------4-------------------------------4---|
A|--------1---4---2---4---6---------------1---4---2---4---6-------|
E|2---4---------------------------2---4---------------------------|

G|----------------------------------------------------------------|
D|----------------------------4-----------------------------------|
A|--------1---4---2---4---6-----/-6---6---6---6---6---6---6---6---|
E|2---4-----------------------------------------------------------|

G|------------6-------------------------------6-------------------|
D|----------------7---6---------------------------7---6-----------|
A|4-----------------------7---6---4-----------------------7---6---|
E|----------------------------------------------------------------|

0:59

G|------------6-------------------------------6-------------------|
D|----------------7---6---------------------------7---6-----------| x3
A|4-----------------------7---6---4-----------------------7---6---|
E|----------------------------------------------------------------|

G|------------6---------------------------------------------------|
D|----------------7---6---------------------------7---6-----------|
A|4-----------------------7---6---4-----------4-----------7---6---|
E|----------------------------------------------------------------|

G|----------------------------------------------------------------|
D|----------------7---6---------------------------7---6-----------|
A|4---4-------4-----------7---6---4---4---4---4-----------7---4---|
E|----------------------------------------------------------------|

1:17

G|----------------------------------------------------------------|
D|----------------------------------------------------------------|
A|5---5-----------5---5-----------5---5-----------5---5-----------|
E|------------5---------------5---------------5---------------4---|

G|----------------------------------------------------------------|
D|----------------------------------------------------------------|
A|4---4-----------4---4-----------4---4-----------4---4-----------|
E|------------4---------------4---------------4---------------5---|

G|----------------------------------------------------------------|
D|----------------------------------------------------------------|
A|5---5-----------5---5-----------5---5-----------5---5-----------|
E|------------5---------------5---------------5---------------2---|

G|----------------------------------------------------------------|
D|----------------------------------------------------------------|
A|2---2-----------2---2-----------2---2-----------2---2-----------|
E|------------2---------------2---------------2---------------2---|

G|--------------------------------|
D|----------------------------4---|
A|2-------2-------2---4---6-------|
E|--------------------------------|

1:33

G|----------------------------------------------------------------|
D|----------------------------2-------------------------------2---|
A|------------2---0---2---4-------------------2---0---2---4-------|
E|0---2---4-----------------------0---2---4-----------------------|

G|----------------------------------------------------------------|
D|----------------------------2-----------------------------------|
A|------------2---0---2---4-----/-4---4---4---4---4---------------|
E|0---2---4-----------------------------------------------4---3---|

G|----------------------------------------------------------------|
D|----------------------------4-------------------------------4---|
A|--------1---4---2---4---6---------------1---4---2---4---6-------|
E|2---4---------------------------2---4---------------------------|

G|----------------------------------------------------------------|
D|----------------------------4-----------------------------------|
A|--------1---4---2---4---6-----/-6---6---6---6---6---6---6-------|
E|2---4-----------------------------------------------------------|

1:46

G|------------6-------------------------------6-------------------|
D|----------------7---6---------------------------7---6-----------| x3
A|4-----------------------7---6---4-----------------------7---6---|
E|----------------------------------------------------------------|

G|------------6---------------------------------------------------|
D|----------------7---6-------------------------------------------|
A|4-----------------------7---6---4---4---4---4---4---4-------4---|
E|--------------------------------------------------------4-------|

2:03

G|----------------------------------------------------------------|
D|----------------------------------------------------------------|
A|5---5-----------5---5-----------5---5-----------5---5-----------|
E|------------5---------------5---------------5---------------4---|

G|----------------------------------------------------------------|
D|----------------------------------------------------------------|
A|4---4-----------4---4-----------4---4-----------4---4-----------|
E|------------4---------------4---------------4---------------5---|

G|----------------------------------------------------------------|
D|----------------------------------------------------------------|
A|5---5-----------5---5-----------5---5-----------5---5-----------|
E|------------5---------------5---------------5---------------2---|

G|----------------------------------------------------------------|
D|----------------------------------------------------------------|
A|2---2-----------2---2-----------2---2-----------2---2-----------|
E|------------2---------------2---------------2---------------2---|

G|--------------------------------|
D|----------------------------4---|
A|2-------2-------2---4---6-------|
E|--------------------------------|

2:19

G|----------------------------------------------------------------|
D|----------------------------2-------------------------------2---|
A|------------2---0---2---4-------------------2---0---2---4-------|
E|0---2---4-----------------------0---2---4-----------------------|

G|----------------------------------------------------------------|
D|----------------------------2-----------------------------------|
A|------------2---0---2---4-----/-4---4---4---4---4---------------|
E|0---2---4-----------------------------------------------4---3---|

G|----------------------------------------------------------------|
D|----------------------------4-------------------------------4---|
A|--------1---4---2---4---6---------------1---4---2---4---6-------|
E|2---4---------------------------2---4---------------------------|

G|--------------------------------------------------------------------------------|
D|----------------------------4---------------------------------------------------|
A|--------1---4---2---4---6-----/-6---6---6---6---6---6---6-----------------------|
E|2---4---------------------------------------------------------------------------|

2:36

G|----------------------------------------------------------------|
D|----------------------------2-------------------------------2---|
A|------------2---0---2---4-------------------2---0---2---4-------|
E|0---2---4-----------------------0---2---4-----------------------|

G|----------------------------------------------------------------|
D|----------------------------2-----------------------------------|
A|------------2---0---2---4-----/-4---4---4---4---4---------------|
E|0---2---4-----------------------------------------------4---3---|

G|----------------------------------------------------------------|
D|----------------------------4-------------------------------4---|
A|--------1---4---2---4---6---------------1-------2---4---6-------|
E|2---4---------------------------2---4---------------------------|

G|--------------------------------------------------------------------|
D|----------------------------4---------------------------------------| fades out here.
A|--------1---4---2---4---6-----/-6---6---6---6---6---6---6---6-------|
E|2---4-----------------------------------------------------------0---|
Suggest correction
Give kudos to tab author, rate the tab!
1 2 3 4 5
comments
print report bad tab
guest
You may want to rate the tab now too:
select rating
Wanna post a correction for this tab? Suggest correction