Oops, an error
Loading. Please wait.

New Horizons Tab

2,508 views 1 this week
2 commentsread comments
1 2 3 4 5
please rate
add to favorites
launch autoscroll
font size
0
reset
how to read this tab
guitar tuner
Tab Pro tools
  • play this tab
  • loop segment
  • change instrument
  • show fretboard
  • metronome
×
Best way to learn
"New Horizons"
Autoscroll
slow
fast
+/-
esc
set tempo
stop
Contributor
Difficulty
intermediate
Intro:

  F      C          F  F  C          F  F  Bb    F  C F

E-1--------------------1----------------1---------------|
B-1--------------------1----------------1---------------|
G-2--2-2-0-0-0--0------2--0-0-0---------2--3-3-3-2--0-2-|
D-3---------------2-3--3---------2---3--3---------------|
A-3--------------------3-----------3----3---------------|
E-1--------------------1----------------1---------------|

  F C   C     F    C   F
        Well, I've had dreams  e-nough for one.
E-1--------------------------------------------|
B-1--------------------------------------------|
G-2-0--------------0---2-----------------------|
D-3-----------3--------------------------------|
A-3-----3--------------------------------------|
E-1--------------------------------------------|

F                            Bb
And I've got love enough for thre-e-e.
Bb        F
I have my hopes to com-fort me.
F                                  Bb
I've got my new  hor-i-zons out to se-e-ea.
C       Dm            Am7    Gm7
But I'm nev-er gon-na lose,  your  pre-cious gift.
C       Dm       Am7          Gm7
It will al--ways be   that    way.
Bb     C Dm              Am7     Gm7
'Cause I know I'm gon-na find,   my peace of mind.
F         C   Bb  F    F
Some-day--ay--ay--ay.
F
Where is this place that,  we have found?
F                            Bb
No-bo-dy knows  where we are bo-o-ound.
Bb        F
I long to hear, I need to see.
F                                      Bb
'Cause I've shed tears, too ma-ny  for me-e-e.
C       Dm            Am7    Gm7
But I'm nev-er gon-na lose,  your pre-cious gift.
C       Dm        Am7         Gm7
It will al--ways  be   that   way.
Bb     C Dm                Am7    Gm7
'Cause I know  I'm  gon-na find,  my-y peace of mind.
F          C        Bb              F
Some-day,  ay,  a-a-ay, a-a-ay, a-a-ay.
Am     Bb    Am       Bb    Am          Bb
On the wind, soar-ing free, spread your wings.
Bb     F    C   Bb     Am      Am7
I'm be-gin--ing to-o   see.
Am     Bb    Am       Bb
Out of mind, far from view.
Am          Bb           F     C    Bb
Be-yond the reach of the night-mare come
  C7    Bb  C7  F   C   F      Dm     C
  true.
E-----------12--13--12--13-15>(17)>15-15-13-12-|
B-13vvv-15-------------------------------------|
G----------------------------------------------|
D----------------------------------------------|
A----------------------------------------------|
E----------------------------------------------|

  Bb
E-13--15-13p12-13p12-13-|
B-----------------------|
G-----------------------|
D-----------------------|
A-----------------------|
E-----------------------|

         Dm     C  Dm     Bb              Dm  C         Bb
E-13-15>(17)>15-15-17-17>(18)==(18)>17-15-17--15-13-12--13-|
B----------------------------------------------------------|
G----------------------------------------------------------|
D----------------------------------------------------------|
A----------------------------------------------------------|
E----------------------------------------------------------|

  Bb             F        C       Bb           F     F
E-15-13-12---------------------------------------|
B----------15-15-13vvvvvv-8vvvvvv-6vvvvvv--------|
G-----------------------------------------7-5----|
D----------------------------------------------3-|
A------------------------------------------------|
E------------------------------------------------|

F
Well, I've had dreams e-nough for one.
F                              Bb
And I've got love  e-nough for thre-e-e.
Bb        F
I have my hopes  to  com-fort me.
F                                  Bb
I've got my new  hor-i-zons out to se-e-ea.
C       Dm            Am7    Gm7
But I'm nev-er gon-na lose,  your pre-cious gift.
C       Dm       Am7       Gm7
It will al--ways be that   way.
 Bb    C Dm              Am7      Gm7
'Cause I know I'm gon-na find, my own peace of mind.
F         C         Bb          F
Some-day--ay,  some-way-ay---ay-ay.

  F      Dm     C              Bb                      Dm     C
E-13-15>(17)>15-15--12--13--15-13p12-13p12-13---13-15>(17)>15-15-|
B-13-------------------------------------------------------------|
G----------------------------------------------------------------|
D----------------------------------------------------------------|
A----------------------------------------------------------------|
E----------------------------------------------------------------|

  Dm     Bb              Dm  C      Bb                 F
E-17-17>(18)==(18)>17-15-17--15--12-13--15-13-12----------------|
B------------------------------------------------15-15-13vvvvvv-|
G---------------------------------------------------------------|
D---------------------------------------------------------------|
A---------------------------------------------------------------|
E---------------------------------------------------------------|

  C       Dm  C     Bb  Bb C Dm  C     Bb     C Dm  C   Bb
E---------------------------------------------------------|
B-8vvvvvv-3------------------3------------------3---------|
G-------------5--5--3---3--5-----5--5--3---3--5-----5---3-|
D---------------------------------------------------------|
A---------------------------------------------------------|
E---------------------------------------------------------|

  Bb C Dm   C  Am7  D
E---------------------|
B------3--------------|
G-3--5------5-------2-|
D--------------5------|
A---------------------|
E---------------------|

E,B,G,D,A,E,= guitar strings, == = hold bend, p = pull off,
>( ) = bend to note in ( ) and release, vv = vibrato.

Cord diagrams:
F      Bb     C      Dm     Am7    Gm7    Am     C7     D
133211 x13331 032010 x00231 x02010 353333 x02210 x32410 x00232

Revised: 01-14-10
Tabbed from: 7th Sojourn  DR 1997
comments
We did not receive enough feedback on this tab! Please rate:
print report bad tab
1 2 3 4 5
2 comments total.
0 reply
swave75 wrote on July 19 2012, 08:51 pm

Wow! Great job dude!

0 reply
Fred Tyrrell wrote on August 10 2012, 11:20 am

Thanks again.

I want to post or [tab]
guest
You may want to rate the tab now too:
select rating
Please do not post tabs as comments. Select "correction" instead!