Oops, an error
Loading. Please wait.

Nights In White Satin bass

version 1
version 1
28,155 views 51 this week
2 commentsread comments
1 2 3 4 5
x 12
add to favorites
×
Save as Personal and add changes to this tab that will be seen only by you. Learn more ›
×
You can save this tab as Personal to edit and correct it or add notes. All changes will be seen only by you. Learn more »
launch autoscroll
font size
0
reset
guitar tuner
backing track
0:00
0:00
edit
Autoscroll
slow
fast
+/-
esc
set tempo
stop
Author
Unregistered
MOODY BLUES - "Nights In White Satin" - Bass Tab

3/4 Time
Standard Tuning(EADG)


[Intro]
(rest)


[Verses 1,2]

G|---|-------|---9---|-------|-------|--------|-------|
D|---|-------|-----9-|-0-----|-------|*-------|-------|
A|---|-7-----|-------|-------|-----0-|*-7-----|-------|
E|-5-|-------|-------|-------|-------|--------|-------|
  3   1 2 3   1 2 3   1 2 3   1 2 3    1 2 3   1 2 3

G|-------|-------|-------|-------|-------|-------|-------|
D|-------|-------|-------|-------|-------|-------|-------|
A|-5-----|-----0-|-7-----|-------|-5-----|-----5-|-3-----|
E|-------|-------|-------|-------|-------|-------|-------|
  1 2 3   1 2 3   1 2 3   1 2 3   1 2 3   1 2 3   1 2 3
               
G|-------|-------|-------|------|-------|-------|--------|
D|-------|-------|-------|------|-------|-------|-------*|
A|-------|-------|-------|------|-------|-------|-------*|
E|-------|-3-----|-----3-|-1----|-----1-|-0-----|--------|(x2)
  1 2 3   1 2 3   1 2 3   1 2 3  1 2 3   1 2 3   1 2 3


[Chorus]

G|-------|-------|-------|-------|-------|-------|-------|
D|-------|-------|-------|-------|-------|-------|-------|
A|-------|-------|-------|-------|-------|-------|-------|
E|-5-----|-5-----|-5-----|-5-5-7-|-8-----|-8-----|-8-----|
  1 2 3   1 2 3   1 2 3   1 2 3   1 2 3   1 2 3   1 2 3

G|-------|-------|-------|-------|-------|-------|-------|
D|-------|-------|-------|-------|-------|-------|-------|
A|-------|-7-7-7-|-7-7-7-|-5-5-5-|-5-5-5-|-7-7-7-|-7-7-7-|
E|-8-----|-------|-------|-------|-------|-------|-------|
  1 2 3   1 2 3   1 2 3   1 2 3   1 2 3   1 2 3   1 2 3

G|-------|-------|
D|-------|-------|
A|-5-5-5-|-5-5-5-|
E|-------|-------|
  1 2 3   1 2 3


[Instrumental]

G|-------|-9-----|-------|-------|-------|-------|-------|
D|-------|---9---|-------|-------|-------|-------|-------|
A|-7-----|-----9-|-7-----|-------|-rest--|-rest--|-rest--|
E|-------|-------|-------|-------|-------|-------|-------|
  1 2 3   1 2 3   1 2 3   1 2 3   1 2 3   1 2 3   1 2 3

G|-------|-------|-------|-------|-------------|-------|---9---|
D|-------|-------|-------|-------|-------------|-------|-----9-|
A|-rest--|-rest--|-rest--|-rest--|-------------|-7-----|-------|
E|-------|-------|-------|-------|-5/7-5/7-5/7-|-------|-------|
  1 2 3   1 2 3   1 2 3   1 2 3    1   2   3    1 2 3   1 2 3

G|-------|-------|-------|-------|-------|-------|-------|
D|-0-----|-------|-------|-------|-------|-------|-------|
A|-------|---5-4-|-3-----|-----3-|-2-----|-------|-7-----|
E|-------|-------|-------|---3---|-------|---7-7-|-------|
  1 2 3   1 2 3   1 2 3   1 2 3   1 2 3   1 2 3   1 2 3

G|-------|-------|-------|-------|-------|-------|-------|
D|-------|-------|-------|-------|-------|-------|-------|
A|---7---|-------|-------|-7-----|---7---|-------|-------|
E|-----7-|-8-----|---7-8-|-------|-----7-|-8-----|---8-7-|
  1 2 3   1 2 3   1 2 3   1 2 3   1 2 3   1 2 3   1 2 3

G|-------|-------|-------|-------|-------|-------|-------|
D|-------|-------|-------|-------|-------|-------|-------|
A|-------|-------|-------|-------|-------|-------|-------|
E|-5-----|---5-6-|-7-----|---7-7-|-5-5-5-|-5-5-5-|-7-7-7-|
  1 2 3   1 2 3   1 2 3   1 2 3   1 2 3   1 2 3   1 2 3

G|-------|-------|-------|-------|-------|-------|-------|
D|-------|-------|-------|-------|-------|-------|-------|
A|-------|-7-7-7-|-7-7-7-|-5-5-5-|-5-5-5-|-------|-------|
E|-7-7-7-|-------|-------|-------|-------|-8-8-8-|-8-8-8-|
  1 2 3   1 2 3   1 2 3   1 2 3   1 2 3   1 2 3   1 2 3

G|-------|-------|-------|-------|-------|-------|-------|
D|-------|-------|-------|-------|-------|-------|-------|
A|-7-7-7-|-7-7-7-|-5-5-5-|-5-5-5-|-7-7-7-|-7-7-7-|-5-5-5-|
E|-------|-------|-------|-------|-------|-------|-------|
  1 2 3   1 2 3   1 2 3   1 2 3   1 2 3   1 2 3   1 2 3

G|-------|
D|-------|
A|-5-5-5-|
E|-------|
  1 2 3


[Verse 3]

G|-------|-------|-------|-------|-------|-------|-------|
D|-------|-------|-------|-------|-------|-------|-------|
A|-7-----|-------|-5-----|-------|-7-----|-------|-5-----|
E|-------|-------|-------|-------|-------|-------|-------|
  1 2 3   1 2 3   1 2 3   1 2 3   1 2 3   1 2 3   1 2 3

G|-------|-------|-------|-------|-------|-------|-------|
D|-------|-------|-------|-------|-------|-------|-------|
A|-----5-|-3-----|-----3-|-------|-------|-------|-------|
E|-------|-------|-------|-3-----|-----3-|-1-----|-----1-|
  1 2 3   1 2 3   1 2 3   1 2 3   1 2 3   1 2 3   1 2 3

G|-------|-------|-------|-------|-------|-------|-------|
D|-------|-------|-------|-------|-------|-------|-------|
A|-------|-------|-7-7-7-|-7-7-7-|-5-5-5-|-5-5-5-|-7-7-7-|
E|-0-----|-------|-------|-------|-------|-------|-------|
  1 2 3   1 2 3   1 2 3   1 2 3   1 2 3   1 2 3   1 2 3

G|-------|-------|-------|-------|-------|-------|-------|
D|-------|-------|-------|-------|-------|-------|-------|
A|-7-7-7-|-5-5-5-|-5-5-5-|-3-3-3-|-3-3-3-|-------|-------|
E|-------|-------|-------|-------|-------|-3-3-3-|-3-3-3-|
  1 2 3   1 2 3   1 2 3   1 2 3   1 2 3   1 2 3   1 2 3

G|-------|-------|-------|-------|
D|-------|-------|-------|-------|
A|-------|-------|-------|-------|
E|-1-1-1-|-1-1-1-|-0-0-0-|-0-0-0-|
  1 2 3   1 2 3   1 2 3   1 2 3


[Outro]

 (after 3rd chorus):
G|-------|-------|-------|-------|-------|-------|-------|
D|-------|-------|-------|-------|-------|-------|-------|
A|-------|-------|-------|-------|-------|-------|-------|
E|-0---0-|-0---0-|-0---0-|-0---0-|-5-----|-5-----|-5-----|
  1 2 3   1 2 3   1 2 3   1 2 3   1 2 3   1 2 3   1 2 3

G|-------|-------|-------|-------|-------|-------|-------|
D|-------|-------|-------|-------|-------|-------|-------|
A|-------|-------|-------|-------|-------|-7-7-7-|-7-7-7-|
E|-5-5-7-|-8-8-8-|-8-8-8-|-8-8-8-|-8-8-8-|-------|-------|
  1 2 3   1 2 3   1 2 3   1 2 3   1 2 3   1 2 3   1 2 3

G|-------|-------|-------|-------|-------|-------|-------|
D|-------|-------|-------|-------|-------|-------|-------|
A|-5-5-5-|-5-5-5-|-7-7-7-|-7-7-7-|-5-5-5-|-5-5-5-|-7-----|
E|-------|-------|-------|-------|-------|-------|-------|
  1 2 3   1 2 3   1 2 3   1 2 3   1 2 3   1 2 3   1 2 3



************************************

| *  reprise
| /  Slide up

************************************
Suggest correction
Creating personal tab
Creating personal tab
You can edit any tab online and save it as your Personal.

You can edit, replace or remove any tab part or add personal notes – all changes will be seen only by you.

Personal tabs can be accessed anytime from any device, even offline.
Learn more »
comments
print report bad tab
2 comments total.
-1 reply
ArthurSpooner 10 Nov 02, 2014 02:59 PM

Tab incomplete. I am very sure that this version is missing a lot of riffs, fills and has a very good amount of wrong notes.

0 reply
Haitch 188 Apr 24, 2015 07:31 PM

I agree. Tab is missing many fills and notes (with some wrong notes)
This tab is well structured with bars although its 6/8 not 3/4.

guest
Wanna post a correction for this tab? Suggest correction