Oops, an error
Loading. Please wait.

Nights In White Satin Tab

version 4
version 4

Whole song

Video

4,992 views 1 this week
no commentswrite comment
1 2 3 4 5
please rate
add to favorites
launch autoscroll
font size
0
reset
how to read this tab
guitar tuner
Tab Pro tools
  • play this tab
  • loop segment
  • change instrument
  • show fretboard
  • metronome
×
Best way to learn
"Nights In White Satin"
Autoscroll
slow
fast
+/-
esc
set tempo
stop
Contributor
Difficulty
intermediate
Intro:

Em        D      O  Em  Em Em7 Em D       Em
/     /   /   /  /  /   /  /   /  /   /   /
E-------------------------------------------|
B-------------------------------------------|
G-------------------------------------------|
D-------------------------------------------|
A-------------------------------------------|
E-7---7---5---5--0--7---7--10--7--5---5---7-| Bass

Em              D       Em                      D      C
Nights in white sat-in.    Nev-er reach-ing the end.
C             G         F                    Em      Em
Let-ters I've writ-ten.   Nev-er mean-ing to send.
Em          D               Em                 D          C
Beau-ty I'd al-ways missed.    With these eyes be-fore.
C             G         F                 Em      Em
Just what the truth is.   I can't say any-more.
Em       A
'Cause I love yo-o-o-o-u.
A       C
Yes, I  love you, (Ah-a-a-ah)
                      C           Em
                      O-oh, how I love you.
 Em      D     Em           D    Em
(Ah, ah, ah,   ah,  ah, ah, ah,  ah.)
Em         D        Em              D       C
Gaz-ing at peo-ple.    Some hand in hand.
C             G               F                   Em       Em
Just what I'm go-ing through.   They can't un-der-stand.
Em          D        Em                          D       C
Some try to tell me.    Thoughts they can-not de-fend.
C             G           F                    Em     Em
Just what you want to be.   you will be in the end.
Em    A                 C
And I love you,  yes, I love you.
 C                Em
(Ah,a,a,ah)
        Oh, how I love you.
 Em      D     Em                 D  Em
(Ah, ah, ah,   ah ah, ah, ah,  ah)
             Oh,  how I  love you-ou-ou.
E-------------------------------------------------|
B-------------------------------------------------|
G-------------------------------------------------|
D-------------------------------------------------|
A-------------------------------------------------|
E-----------------------------------------7-5-3-0-| Bass

  Em         D            C           B7
E------------------------------------------|
B---5vvv-7h8-7----------7------------------|
G-4------------h9-7---9---9p7-----7h9-8vvv-|
D-----------------------------10-----------|
A------------------------------------------|
E------------------------------------------|

 Em          D            C           B7
E------------------------------------------|
B---5vvv-7h8-10p8-7--8h10-8p7-----7h8-7vvv-|
G-4---------------------------h9-----------|
D------------------------------------------|
A------------------------------------------|
E------------------------------------------|

  Em         C                Em                C
E--------------------------------------------------|
B--------------------------------------------------|
G-16==vvvv16-14---------------16==vvvv16-14--------|
D---------------h17-14--14h17---------------h17-14-|
A--------------------------------------------------|
E--------------------------------------------------|

  C     A   Em C  Em     A   Em C  Em     Em      D       C(3rd fr)
E---------------------------------------------------------15vvvvvv-|
B-----------------------------------------17vvvvvv19vvvvvv---------|
G-------14--16-17-16vvvv-14--16-17-16vvvv--------------------------|
D-14-17------------------------------------------------------------|
A------------------------------------------------------------------|
E------------------------------------------------------------------|

  Em         D   Em         D   Em
E----------------------------------|
B-17===vvv17-15--17===vvv17=15-----|
G-------------------------------16-|
D----------------------------------|
A----------------------------------|
E----------------------------------|

Em              D       Em                      D     C
Nights in white sat-in.    Nev-er reach-ing the end.
C             G         F                    Em     Em
Let-ters I've writ-ten.   Nev-er mean-ing to send.
Em           D               Em                    D      C
Beau-ty I've al-ways missed.    With these eyes be-fore.
C             G         F                 Em     Em
Just what the truth is.   I can't say any-more.
 Em      A                 C                     Em         Em
'Cause I love you.  Yes, I love you,  o-oh how I love you.
                                  (Ah    ah    ah)
 Em      D   Em                D    Em     Em
(Ah  ah  ah) O-oh, how I love  you. O-oh.
                   (Ah   ah    ah)
 Em      A                 C                       Em         Em
'Cause I love you.  Yes, I love you,   o-oh, how I love you.
                                     (Ah-a-ah)
 Em        D   Em                     D  Em
(Ah   ah   ah) O-oh, how I love   you-ou-ou.
              (Ah    ah    ah     ah)

Ends with drums.

E,B,G,D,A,E = guitar strings, h = hammer on, p = pull off,
vvv = vibrato, === = hold note, / / = number of time to play
chord in intro. The bass is for a standard 6 string.

Chord diagrams:
Em     E      C      G      F      A      B7     C(3rd fr)
022000 x00232 032010 355433 133211 x03330 x21202 x35553
Em7    0  (Open chord in the intro only)
022030 000000

Tabbed from:  The Best of the Moody Blues DR CD. 1996
comments
We did not receive enough feedback on this tab! Please rate:
print report bad tab
1 2 3 4 5
I want to post or [tab]
guest
You may want to rate the tab now too:
select rating
Please do not post tabs as comments. Select "correction" instead!