Oops, an error
Loading. Please wait.

Story In Your Eyes bass

version 1
version 1

Whole song

4,823 views 9 this week
1 commentread comment
1 2 3 4 5
x 4
add to favorites
×
Save as Personal and add changes to this tab that will be seen only by you. Learn more ›
×
You can save this tab as Personal to edit and correct it or add notes. All changes will be seen only by you. Learn more »
launch autoscroll
font size
0
reset
guitar tuner
edit
Autoscroll
slow
fast
+/-
esc
set tempo
stop
Author
I use to play this song in pep band, and it goes pretty fast.

Intro:
G|------|
D|------|
A|0--0-0|
E|-h3---|

You do that so many times, then you follow it up:
G|---------------------------|
D|------0-2-0----------------|
A|0-2-3-------3-2-0----------|
E|--------------------0(hold)|

Then repeat the intro a few times, then play:
G|--------------------------------------------------|
D|------0-2-0-----------------------------0-2-0-----|
A|0-2-3-------3-2-0---------------------2-------2-0-|
E|--------------------0(hold)0-2-3--3-3-------------|

And continue that until the end of the song.

At certain points, play:
G|-----------------|----------------------|-----------------|
D|-------0-2-0-----|-------0-2-0----------|-------0-2-0-----|
A|-----2-------2-0-|-----2-------2--------|-----2-------2-0-|
E|-3-3-------------|-3-3-----------3(hold)|-3-3-------------|

That's all folks.
Suggest correction
Creating personal tab
Creating personal tab
You can edit any tab online and save it as your Personal.

You can edit, replace or remove any tab part or add personal notes – all changes will be seen only by you.

Personal tabs can be accessed anytime from any device, even offline.
Learn more »
comments
print report bad tab
1 comment total.
0 reply
eow 41 Mar 28, 2009 11:45 AM

Um... Nope

guest
You may want to rate the tab now too:
select rating
Wanna post a correction for this tab? Suggest correction