Oops, an error
Loading. Please wait.

You And Me intro tab

version 2
version 2

Intro

325 views 1 this week
no commentswrite comment
1 2 3 4 5
3 more votes to show rating
add to favorites
×
Save as Personal and add changes to this tab that will be seen only by you. Learn more ›
×
You can save this tab as Personal to edit and correct it or add notes. All changes will be seen only by you. Learn more »
launch autoscroll
font size
0
reset
how to read this tab
guitar tuner
edit
Autoscroll
slow
fast
+/-
esc
set tempo
stop
Author
Difficulty
This is the intro set of riffs to The Moody Blues' song You and Me, as far as I can 
tell.   I've got the
notes here, but you will need to work out the timing on your own.    I have not tabbed 
out the outro yet, but
the phrases Justin Hayward is playing are variations on these.


(/) Slide Up  (\) Slide Down  (h) Hammer On  (p) Pull Off  (b) Bend (r) Release (v) Vibrato

Riff 1, repeat 3x

E|-------------------------|
B|-------------------------|
G|-------------------------|
D|-------------------------|
A|-------2--5-----4-----2--|
E|--0/4--------7-----5-----|


First riff turnaround

E|--------------|
B|--------------|
G|--------------|
D|--------------|
A|-----0-----2--|
E|--4-----2-----|


Riff 2 - repeat 3x

E|----------------------------|
B|----------------------------|
G|----------------------------|
D|----------2--------1--------|
A|-----0/4-----4--------2--0--|
E|--2-------------------------|

Second riff turnaround

E|-------------|
B|-------------|
G|-------------|
D|-------------|
A|-----0/4--2--|
E|--2----------|

Riff 3 - repeat 3x

E|----------------------------|
B|----------------------------|
G|----------------------------|
D|----------4--7-----6-----4--|
A|--2--4/6--------9-----7-----|
E|----------------------------|

Third riff turnaround

E|--------------|
B|--------------|
G|--------------|
D|-----2--------|
A|--6-----4--2--|
E|--------------|

Riff 1a (some additional notes added) - repeat 3x

E|-------------------------|
B|-------------------------|
G|-------------------------|
D|-------------------------|
A|-------2--_-5-5-4-4---2--|
E|--0/4--------7---5-------|

First riff turnaround

E|--------------|
B|--------------|
G|--------------|
D|--------------|
A|-----0-----2--|
E|--4-----2-----|

Riff 2a - repeat 3x

E|----------------------------|
B|----------------------------|
G|----------------------------|
D|----------2-2-1-1-----------|
A|-----0/4---4---2--0---------|
E|--2-------------------------|

Second riff turnaround

E|-------------|
B|-------------|
G|-------------|
D|-------------|
A|-----0/4--2--|
E|--2----------|

Riff 3a - repeat 3x

E|----------------------------|
B|----------------------------|
G|----------------------------|
D|----------4--7-7---6-6---4--|
A|--2--4/6------9-----7-------|
E|----------------------------|

Third riff turnaround

E|--------------|
B|--------------|
G|--------------|
D|-----2--------|
A|--6-----4--2--|
E|--------------|

Riff 1a -

E|-------------------------|
B|-------------------------|
G|-------------------------|
D|-------------------------|
A|-------2----5-5-4-4---2--|
E|--0/4--------7---5-------|


First riff turnaround (note that this ends on open E, not B)

E|--------------|
B|--------------|
G|--------------|
D|--------------|
A|---2-0--------|
E|--4-----2---0-|

The chords for the song are in another entry in ultimate-guitar.   They are, as far as I 
can tell,
correct.

            
            
Suggest correction
Creating personal tab
Creating personal tab
You can edit any tab online and save it as your Personal.

You can edit, replace or remove any tab part or add personal notes – all changes will be seen only by you.

Personal tabs can be accessed anytime from any device, even offline.
Learn more »
Give kudos to tab author, rate the tab!
1 2 3 4 5
comments
print report bad tab
guest
You may want to rate the tab now too:
select rating
Wanna post a correction for this tab? Suggest correction