Oops, an error
Loading. Please wait.

Faces Bass Tab

16 views 1 this week
no commentswrite comment
1 2 3 4 5
3 more votes to show rating
add to favorites
launch autoscroll
font size
0
reset
guitar tuner
Autoscroll
slow
fast
+/-
esc
set tempo
stop
Help us to improve Ultimate-Guitar.com Take our survey!
×
Author
Difficulty
novice
Tabbed by: 6METAL6BASSIST6
E-mail: petergriffinav@gmail.com

Tuning: EADG

0:10

G|----------------------------------------------------------------|
D|----------------------------------------------------------------| x2
A|--------------------------------4---4---4---4-------------------|
E|4---4---4---4---4---4---4---4-------------------6---6---6---6---|

0:20

G|----------------------------------------------------------------|
D|9---9---9---9---9---9---9---8-------------------------------6---|
A|--------------------------------9---9-------9---9---9---9-------|
E|----------------------------------------------------------------|

G|----------------------------------------------------------------|
D|7---7---7---7---7---7---7---6-----------------------------------|
A|--------------------------------7---7---7---7---7---7---7---7---|
E|----------------------------------------------------------------|

0:29

G|----------------------------------------------------------------|
D|----------------------------------------------------------------|
A|----------------------------------------------------4-------4---|
E|7-------------------6-------7---6-------------------------------|

G|----------------------------------------------------6-----------|
D|4-------------------------------------------6---------------6---|
A|--------------------4-------4---7---6---7-----------------------|
E|----------------------------------------------------------------|

G|----------------------------------------------------------------|
D|9---------------------------------------------------------------|
A|----------------------------------------------------4-------4---|
E|--------------------6-------7---6-------------------------------|

G|----------------------------------------------------6-------4---|
D|4-------------------------------------------6-------------------|
A|--------------------4-------4---7---6---7-----------------------|
E|----------------------------------------------------------------|

G|----------------------------------------------------------------|
D|6---------------------------------------------------------------|
A|------------------------7---\---4-------------------------------|
E|------------------------------------------------6---------------|

0:54

G|----------------------------------------------------------------|
D|----------------------------------------------------------------| x2
A|--------------------------------4---4---4---4-------------------|
E|4---4---4---4---4---4---4---4-------------------6---6---6---6---|

1:03

G|----------------------------------------------------------------|
D|9---9---9---9---9---9---9---8-------------------------------6---|
A|--------------------------------9---9---9---9---9---9---9-------|
E|----------------------------------------------------------------|

G|----------------------------------------------------------------|
D|7---7---7---7---7---7---7---6-----------------------------------|
A|--------------------------------7---7---7---7---7---7---7---7---|
E|----------------------------------------------------------------|

1:12

G|----------------------------------------------------------------|
D|----------------------------------------------------------------|
A|----------------------------------------------------4-------4---|
E|7-------------------6-------7---6-------------------------------|

G|----------------------------------------------------6-----------|
D|4-------------------------------------------6---------------6---|
A|--------------------4-------4---7---6---7-----------------------|
E|----------------------------------------------------------------|

G|----------------------------------------------------------------|
D|9---------------------------------------------------------------|
A|----------------------------------------------------4-------4---|
E|--------------------6-------7---6-------------------------------|

G|----------------------------------------------------6-------4---|
D|4-------------------------------------------6-------------------|
A|--------------------4-------4---7---6---7-----------------------|
E|----------------------------------------------------------------|

G|----------------------------------------------------------------|
D|6---------------------------------------------------------------|
A|------------------------7---\---4-------------------------------|
E|------------------------------------------------6---------------|

1:36

G|----------------------------------------------------------------|
D|----------------------------------------------------------------| x2
A|--------------------------------4---4---4---4-------------------|
E|4---4---4---4---4---4---4---4-------------------6---6---6---6---|

1:45

G|----------------------------------------------------------------|
D|9---9---9---9---9---9---9---8-------------------------------6---|
A|--------------------------------9---9---9---9---9---9---9-------|
E|----------------------------------------------------------------|

G|----------------------------------------------------------------|
D|7---7---7---7---7---7---7---6-----------------------------------|
A|--------------------------------7---7---7---7---7---7---7---7---|
E|----------------------------------------------------------------|

G|--------------------------------|
D|--------------------------------|
A|--------------------------------|
E|7-------------------------------|
Suggest correction
Give kudos to tab author, rate the tab!
1 2 3 4 5
comments
print report bad tab
guest
You may want to rate the tab now too:
select rating
Wanna post a correction for this tab? Suggest correction