Oops, an error
Loading. Please wait.

I Should Be Dreaming Bass Tab

10 views 1 this week
no commentswrite comment
1 2 3 4 5
3 more votes to show rating
add to favorites
launch autoscroll
font size
0
reset
guitar tuner
Autoscroll
slow
fast
+/-
esc
set tempo
stop
Help us to improve Ultimate-Guitar.com Take our survey!
×
Author
Difficulty
novice
Tabbed by: 6METAL6BASSIST6
E-mail: petergriffinav@gmail.com

Tuning: EADG

0:10

G|--------------------------------|
D|--------------------12----------|
A|--------------------------------|
E|10--10----------10--------------|

G|----------------------------------------------------------------|
D|10--10----------10--10------------------------------------------|
A|--------------------------------10--10----------10--10----------|
E|----------------------------------------------------------------|

G|----------------------------------------------------------------|
D|--------------------------------10--10----------10--10----------|
A|8---8-----------8---8-------------------------------------------|
E|----------------------------------------------------------------|

G|----------------------------------------------------------------|
D|10--10----------10--10------------------------------------------|
A|--------------------------------10--10----------10--10----------|
E|----------------------------------------------------------------|

G|----------------------------------------------------------------|
D|----------------------------------------------------------------|
A|8---8-----------8---8-------------------------------------------|
E|--------------------------------8---8-----------8---8-----------|

0:32

G|----------------------------------------------------------------|
D|10--10----------10--10------------------------------------------|
A|--------------------------------10--10----------10--10----------|
E|----------------------------------------------------------------|

G|----------------------------------------------------------------|
D|------------------------------------------------7-------9-------|
A|8---8-----------8---8-----------10--10--------------------------|
E|----------------------------------------------------------------|

G|----------------------------------------------------------------|
D|10--10----------12--12----------12--12----------12--12----------|
A|----------------------------------------------------------------|
E|----------------------------------------------------------------|

0:46

G|----------------------------------------------------------------|.
D|10--10----------10--10------------------------------------------|.
A|--------------------------------10--10----------10--10----------|.
E|----------------------------------------------------------------|.
                                                                   . x2
G|----------------------------------------------------------------|.
D|----------------------------------------------------------------|.
A|8---8-----------8---8-------------------------------------------|.
E|--------------------------------8---8-----------8---8-----------|.

1:08

G|----------------------------------------------------------------|
D|10--10----------10--10------------------------------------------|
A|--------------------------------10--10----------10--10----------|
E|----------------------------------------------------------------|

G|----------------------------------------------------------------|
D|--------------------------------------------------7-----9-------|
A|8---8-----------8---8-----------10--10--------------------------|
E|----------------------------------------------------------------|

G|----------------------------------------------------------------|
D|10--10----------12--12----------12--12----------12--12----------|
A|----------------------------------------------------------------|
E|----------------------------------------------------------------|

1:20

G|----------------------------------------------------------------|
D|----------------------------------------------------------------|
A|14--14----------14--14----------14--14----------14--14----------|
E|----------------------------------------------------------------|

G|----------------------------------------------------------------|
D|----------------------------------------------------------------|
A|10--10----------10--10----------14--14----------14--14----------|
E|----------------------------------------------------------------|

G|----------------------------------------------------------------|
D|----------------------------------------------------------------|
A|14--14----------14--14----------14--14----------14--14------\---|
E|----------------------------------------------------------------|

G|----------------------------------------------------------------|
D|----------------------------------------------------------------|
A|10--10----------10--10----------14--14----------14--14----------|
E|----------------------------------------------------------------|

1:40

G|----------------------------------------------------------------|
D|12--12----------12--12------------------------------------------|
A|--------------------------------10--10----------10--10----------|
E|----------------------------------------------------------------|

G|----------------------------------------------------------------|
D|--------------------------------12--12----------12--12----------|
A|14--14----------14--14------------------------------------------|
E|----------------------------------------------------------------|

G|--------------------------------|
D|12--12----------12--12----------|
A|--------------------------------|
E|--------------------------------|

1:51

G|----------------------------------------------------------------|.
D|10--10----------10--10------------------------------------------|.
A|--------------------------------10--10----------10--10----------|.
E|----------------------------------------------------------------|.
                                                                   . x2
G|----------------------------------------------------------------|.
D|--------------------------------10--10----------10--10----------|.
A|8---8-----------8---8-------------------------------------------|.
E|----------------------------------------------------------------|.

2:10

G|----------------------------------------------------------------|
D|10--10----------10--10------------------------------------------|
A|--------------------------------10--10----------10--10----------|
E|----------------------------------------------------------------|

G|----------------------------------------------------------------|
D|------------------------------------------------7---7-------9---|
A|8---8-----------8---8-----------10--10--------------------------|
E|----------------------------------------------------------------|

G|----------------------------------------------------------------|
D|10--10----------12--12----------12--12----------12--12----------|
A|----------------------------------------------------------------|
E|----------------------------------------------------------------|

G|----------------|
D|12--------------|
A|----------------|
E|----------------|
Suggest correction
Give kudos to tab author, rate the tab!
1 2 3 4 5
comments
print report bad tab
guest
You may want to rate the tab now too:
select rating
Wanna post a correction for this tab? Suggest correction