Oops, an error
Loading. Please wait.

Another Love Tab

893 views 1 this week
no commentswrite comment
1 2 3 4 5
2 more votes to show rating
add to favorites
launch autoscroll
font size
0
reset
how to read this tab
guitar tuner
Autoscroll
slow
fast
+/-
esc
set tempo
stop
Help us to improve Ultimate-Guitar.com Take our survey!
×
Author
Difficulty
Capo
  follow
intermediate
7th fret
Another Love by Tom Odell -  Acoustic Cover by the Moon Loungers

Video here - https://www.youtube.com/watch?v=nmsmBZBuIuQ


CHORDS - Capo 7th fret
 
          EADGBE                  EADGBE
         --------                --------
Am        x02210        Em(#5)    02201x
B/G       x20x3x        F         10321x
C         X32010        F6(no5)   10323x
F(2)      xx3211        Ddm7/Am   x02211
Asus4     x0223x        F6(no5)   10323x        
Em        022000




INTRO

 Am            B/G       C            F(2)       Am          Asus4       Em           (Em#5)
|---------------------0-|----------0----1-----0-|-----------------------|------------------------|
|----------1----3-------|-----------------------|----------1----3-----0-|----------0-----1-------|
|-------2---------------|-------0---------------|-------2---------------|-------0--------------2-|
|----2------------------|----2-------------3----|----2------------------|----2-------------------|
|-0----------0-----2----|-3----------3----------|-0----------0-----0----|------------------------|
|-----------------------|-----------------------|-----------------------|-0-----------0-----0----|


 F           F6(no5)     Am          Dm7/Am      Am          Asus4       Em           (Em#5)
|---------------------0-|----------0----1-----0-|-----------------------|------------------------|
|----------1----3-------|-----------------------|----------1----3-----0-|----------0-----1-------|
|-------2---------------|-------2---------------|-------2---------------|-------0--------------2-|
|----3------------------|----2------------------|----2------------------|----2-------------------|
|-----------------------|-0----------0-----0----|-0----------0-----0----|------------------------|
|-1----------1-----1----|-----------------------|-----------------------|-0-----------0-----0----|


 F
|----------------------|----------------------|
|----------1-----------|----------1-----------|
|-------2-----2-----2--|-------2-----2-----2--|
|----3-----------3-----|----3-----------3-----|
|----------------------|----------------------|
|-1--------------------|-1--------------------|



VERSE 1

  F                      Am         Dm7/Am      Am                   Em
|----------------------|-0------------1--------|-0------------------|------------------------|
|-1--------------------|-1------------1--------|-1------------------|-0----------------------|
|-2--------------------|-2------------2--------|-2------------------|-0----------------------|
|-3--------------------|-----------------------|--------------------|-2----------------------|
|----------------------|-0------------0--------|-0------------------|------------------------|
|-1--------------------|-----------------------|--------------------|-0----------------------|
   I wanna take you   somewhere so y'know I care   but it's so cold     and I don't know where


  F                  Am         Dm7/Am       Am                      Em
|------------------|-0-----------1----------|-0---------------------|----------------------|
|-1----------------|-1-----------1----------|-1---------------------|-0--------------------|
|-2----------------|-2-----------2----------|-2---------------------|-0--------------------|
|-3----------------|------------------------|-----------------------|-2--------------------|
|------------------|-0-----------0----------|-0---------------------|----------------------|
|-1----------------|------------------------|-----------------------|-0--------------------|
    I bought you daffodils in a pretty string   but they won't flower   like they did last 


 F
|----------------------|----------------------|
|----------1-----------|----------1-----------|
|-------2-----2-----2--|-------2-----2-----2--|
|----3-----------3-----|----3-----------3-----|
|----------------------|----------------------|
|-1--------------------|-1--------------------|
 spring



VERSE 2
  
 F           F6(no5)     Am          Dm7/Am        Am          Asus4         
|---------------------0-|----------0-------1-----0-|-------------------------|
|----------1----3-------|--------------------------|----------1------3-----0-|
|-------2---------------|-------2------------------|-------2-----------------|
|----3------------------|----2---------------------|----2--------------------|
|-----------------------|-0------------0------0----|-0----------0-------0----|
|-1----------1-----1----|--------------------------|-------------------------|
       and I wanna  kiss you  make y' feel alright          I'm just so  tired


Em           (Em#5)         F           F6(no5)     Am          Dm7/Am            
|--------------------------|---------------------0-|----------0-------1-----0-|
|----------0-------1-------|----------1------3-----|--------------------------|
|-------0----------------2-|-------2---------------|-------2------------------|
|----2---------------------|----3------------------|----2---------------------|
|--------------------------|-----------------------|-0------------0------0----|
|-0-----------0-------0----|-1------------1----1---|--------------------------|
         to share my       nights         I  wanna  cry I wanna learn to  love


  Am            Asus4       Em           (Em#5)         F
|-------------------------|----------------------------|--------------------|--------------------|
|----------1------3-----0-|----------0----------1------|---------1----------|---------1----------|
|-------2-----------------|-------0------------------2-|------2-----2-----2-|------2-----2-----2-|
|----2--------------------|----2-----------------------|---3-----------3----|---3-----------3----|
|-0------------0-----0----|----------------------------|--------------------|--------------------|
|-------------------------|-0-------------0-------0----|-1------------------|-1------------------|
          but all my  tears         have been used         up



CHORUS

  F                      C                   Am                   Em
|----------------------|--------------------|--------------------|----------------------|
|-1--------------------|-1------------------|-1------------------|-0--------------------|
|-2--------------------|-0------------------|-2------------------|-0--------------------|
|-3--------------------|-2------------------|-2------------------|-2--------------------|
|----------------------|-3------------------|-0------------------|----------------------|
|-1--------------------|--------------------|--------------------|-0--------------------|
    on another love         another love        all my tears         have been used up


  F                      C                   Am                   Em
|----------------------|--------------------|--------------------|----------------------|
|-1--------------------|-1------------------|-1------------------|-0--------------------|
|-2--------------------|-0------------------|-2------------------|-0--------------------|
|-3--------------------|-2------------------|-2------------------|-2--------------------|
|----------------------|-3------------------|-0------------------|----------------------|
|-1--------------------|--------------------|--------------------|-0--------------------|
    on another love         another love        all my tears         have been used up


  F                   C                    Am                       Em
|--------------------|----------------------|----------------------|-------------------------|
|-1-----1------------|----------1-----------|----------1-----------|------------0------------|
|-2--2-----2-------0-|-------0-----0------0-|-------2------2-----0-|-------0---------0-----0-|
|-3-------------3----|----2------------2----|----2------------2----|----2---------------2----|
|--------------------|-3--------------------|-0--------------------|-------------------------|
|-1------------------|----------------------|----------------------|-0-----------------------|
    on another love           another love             all my tears       have been used 


  F                      C                   Am                   Em
|----------------------|--------------------|--------------------|----------------------|
|-1--------------------|-1------------------|-1------------------|-0--------------------|
|-2--------------------|-0------------------|-2------------------|-0--------------------|
|-3--------------------|-2------------------|-2------------------|-2--------------------|
|----------------------|-3------------------|-0------------------|----------------------|
|-1--------------------|--------------------|--------------------|-0--------------------|
         up                                  oooh                 oooh



LINK

 Am          B/G         C           F(2)        Am          Asus4       Em           (Em#5)
|---------------------0-|----------0----1-----0-|-----------------------|------------------------|
|----------1----3-------|-----------------------|----------1----3-----0-|----------0-----1-------|
|-------2---------------|-------0---------------|-------2---------------|-------0--------------2-|
|----2------------------|----2-------------3----|----2------------------|----2-------------------|
|-0----------0-----2----|-3----------3----------|-0----------0-----0----|------------------------|
|-----------------------|-----------------------|-----------------------|-0-----------0-----0----|


 F           F6(no5)     Am          Dm7/Am     Am          Asus4       Em           (Em#5)
|---------------------0-|----------0----1-----0-|-----------------------|------------------------|
|----------1----3-------|-----------------------|----------1----3-----0-|----------0-----1-------|
|-------2---------------|-------2---------------|-------2---------------|-------0--------------2-|
|----3------------------|----2------------------|----2------------------|----2-------------------|
|-----------------------|-0----------0-----0----|-0----------0-----0----|------------------------|
|-1----------1-----1----|-----------------------|-----------------------|-0-----------0-----0----|


 F
|----------------------|----------------------|
|----------1-----------|----------1-----------|
|-------2-----2-----2--|-------2-----2-----2--|
|----3-----------3-----|----3-----------3-----|
|----------------------|----------------------|
|-1--------------------|-1--------------------|



VERSE 3
  
 F             F6(no5)          Am          Dm7/Am        Am                Asus4         
|-----------------------0------|----------0-------1-----0-|-------------------------------|
|-----------1-----3------------|--------------------------|----------1----------3-----0---|
|-------2----------------------|-------2------------------|-------2-----------------------|
|----3-------------------------|----2---------------------|----2--------------------------|
|------------------------------|-0------------0------0----|-0------------0---------0------|
|-1------------1-----1---------|--------------------------|-------------------------------|
       And if somebody hurts you          I wanna    fight       But my hand?s been broken  


Em            (Em#5)      F           F6(no5)      Am           Dm7/Am            
|------------------------|---------------------0--|-----------0-------1-----0--|
|-----------0----1-------|----------1------3------|----------------------------|
|-------0--------------2-|-------2----------------|--------2-------------------|
|----2-------------------|----3-------------------|----2-----------------------|
|------------------------|------------------------|-0-------------0------0-----|
|-0------------0----0----|-1------------1----1----|----------------------------|
       one too many  times      So I  use my  voice   I?ll be so flippin?  rude


  Am              Asus4       Em                (Em#5)         
|----------------------------|----------------------------|
|-------------1------3-----0-|----------0----------1------|
|-------2--------------------|-------0------------------2-|
|----2-----------------------|----2-----------------------|
|-0---------------0-----0----|----------------------------|
|----------------------------|-0-------------0-------0----|
       Words they always win        but I  know   I?ll lose



VERSE 4
  
 F             F6(no5)        Am              Dm7/Am    Am           Asus4         
|-------------------------0--|----------0-------1-----0-|----------------------------|
|-----------1-------3--------|--------------------------|----------1-------3-----0---|
|-------2--------------------|-------2------------------|-------2--------------------|
|----3-----------------------|----2---------------------|----2-----------------------|
|----------------------------|-0------------0------0----|-0------------0------0------|
|-1-------------1------1-----|--------------------------|----------------------------|
       And I?d sing a    song      that?d  be just  ours       But I sang ?em   all 


Em            (Em#5)      F           F6(no5)      Am           Dm7/Am            
|------------------------|---------------------0--|-----------0-------1-----0--|
|-----------0----1-------|----------1------3------|----------------------------|
|-------0--------------2-|-------2----------------|--------2-------------------|
|----2-------------------|----3-------------------|----2-----------------------|
|------------------------|------------------------|-0-------------0------0-----|
|-0------------0----0----|-1------------1----1----|----------------------------|
       to another    heart      And I  wanna  cry      I  wanna learn to  love    


  Am           Asus4       Em               (Em#5)       F
|-------------------------|-----------------------------|--------------------|--------------------|
|----------1------3-----0-|----------0----------1-------|---------1----------|---------1----------|
|-------2-----------------|-------0-------------------2-|------2-----2-----2-|------2-----2-----2-|
|----2--------------------|----2------------------------|---3-----------3----|---3-----------3----|
|-0------------0-----0----|-----------------------------|--------------------|--------------------|
|-------------------------|-0-------------0--------0----|-1------------------|-1------------------|
         but all my   tears        have been  used up



CHORUS

  F                     C                    Am                        Em
|----------------------|----------------------|-----------------------|-------------------------|
|---------1------------|----------1-----------|----------1------------|------------0------------|
|------2------2------0-|-------0-----0------0-|-------2-------2-----0-|-------0---------0-----0-|
|---3-------------3----|----2------------2----|----2-------------2----|----2---------------2----|
|----------------------|-3--------------------|-0---------------------|-------------------------|
|-1--------------------|----------------------|-----------------------|-0-----------------------|
       on another love          another love              all my  tears      have been used  up


  F                     C                    Am                        Em
|----------------------|----------------------|-----------------------|-------------------------|
|---------1------------|----------1-----------|----------1------------|------------0------------|
|------2------2------0-|-------0-----0------0-|-------2-------2-----0-|-------0---------0-----0-|
|---3-------------3----|----2------------2----|----2-------------2----|----2---------------2----|
|----------------------|-3--------------------|-0---------------------|-------------------------|
|-1--------------------|----------------------|-----------------------|-0-----------------------|
       on another love          another love              all my  tears      have been used  up


  F                     C                    Am                        Em
|----------------------|----------------------|-----------------------|-------------------------|
|---------1------------|----------1-----------|----------1------------|------------0------------|
|------2------2------0-|-------0-----0------0-|-------2-------2-----0-|-------0---------0-----0-|
|---3-------------3----|----2------------2----|----2-------------2----|----2---------------2----|
|----------------------|-3--------------------|-0---------------------|-------------------------|
|-1--------------------|----------------------|-----------------------|-0-----------------------|
       on another love          another love              all my  tears      have been used  


 F                      C                     Am                    Em
|----------------------|---------------------|---------------------|---------------------|
|----------1-----------|----------1----------|----------1----------|----------0----------|
|-------2-----2------0-|-------0-----0-----0-|-------2-----2-----0-|-------0-----0-----0-|
|----3------------3----|----2-----------2----|----2-----------2----|----2-----------2----|
|----------------------|-3-------------------|-0-------------------|---------------------|
|-1--------------------|---------------------|---------------------|-0-------------------|
          up                                  ooh                   ooh



INSTRUMENTAL BREAK

 F           F6(no5)     Am          Dm7/Am     Am          Asus4       Em           (Em#5)
|---------------------0-|----------0----1-----0-|-----------------------|------------------------|
|----------1----3-------|-----------------------|----------1----3-----0-|----------0-----1-------|
|-------2---------------|-------2---------------|-------2---------------|-------0--------------2-|
|----3------------------|----2------------------|----2------------------|----2-------------------|
|-----------------------|-0----------0-----0----|-0----------0-----0----|------------------------|
|-1----------1-----1----|-----------------------|-----------------------|-0-----------0-----0----|


 F           F6(no5)     Am          Dm7/Am      Am          Asus4       Em           (Em#5)
|---------------------0-|----------0----1-----0-|-----------------------|------------------------|
|----------1----3-------|-----------------------|----------1----3-----0-|----------0-----1-------|
|-------2---------------|-------2---------------|-------2---------------|-------0--------------2-|
|----3------------------|----2------------------|----2------------------|----2-------------------|
|-----------------------|-0----------0-----0----|-0----------0-----0----|------------------------|
|-1----------1-----1----|-----------------------|-----------------------|-0-----------0-----0----|



VERSE 5
  
 F             F6(no5)        Am              Dm7/Am    Am           Asus4         
|-------------------------0--|----------0-------1-----0-|----------------------------|
|-----------1-------3--------|--------------------------|----------1-------3-----0---|
|-------2--------------------|-------2------------------|-------2--------------------|
|----3-----------------------|----2---------------------|----2-----------------------|
|----------------------------|-0------------0------0----|-0------------0------0------|
|-1-------------1------1-----|--------------------------|----------------------------|
       I wanna sing a    song      that?d  be just  ours       But I sang ?em   all 


Em            (Em#5)      F           F6(no5)      Am           Dm7/Am            
|------------------------|---------------------0--|-----------0-------1-----0--|
|-----------0----1-------|----------1------3------|----------------------------|
|-------0--------------2-|-------2----------------|--------2-------------------|
|----2-------------------|----3-------------------|----2-----------------------|
|------------------------|------------------------|-0-------------0------0-----|
|-0------------0----0----|-1------------1----1----|----------------------------|
       to another    heart      And I  wanna  cry      I  wanna fall in  love    


  Am           Asus4       Em           (Em#5)           F
|-------------------------|-----------------------------|--------------------|--------------------|
|----------1------3-----0-|----------0----------1-------|---------1----------|---------1----------|
|-------2-----------------|-------0-------------------2-|------2-----2-----2-|------2-----2-----2-|
|----2--------------------|----2------------------------|---3-----------3----|---3-----------3----|
|-0------------0-----0----|-0---------------------------|--------------------|--------------------|
|-------------------------|---------------0--------0----|-1------------------|-1------------------|
         but all my   tears        have been  used up



CHORUS

  F                     C                      Am                      Em
|----------------------|----------------------|-----------------------|--------------------------|
|----------1-----------|-----------1----------|-----------1-----------|-------------0------------|
|------2-------2-----0-|-------0------0-----0-|-------2-------2-----0-|-------0----------0-----0-|
|---3-------------3----|----2------------2----|----2-------------2----|----2----------------2----|
|----------------------|-3-------3------------|-0-------0-------------|--------------------------|
|-1------1-------------|----------------------|-----------------------|-0--------0---------------|
      on another love           another love              all my  tears       have been used  up


  F                     C                      Am                      Em
|----------------------|----------------------|-----------------------|--------------------------|
|----------1-----------|-----------1----------|-----------1-----------|-------------0------------|
|------2-------2-----0-|-------0------0-----0-|-------2-------2-----0-|-------0----------0-----0-|
|---3-------------3----|----2------------2----|----2-------------2----|----2----------------2----|
|----------------------|-3-------3------------|-0-------0-------------|--------------------------|
|-1------1-------------|----------------------|-----------------------|-0--------0---------------|
      on another love           another love              all my  tears       have been used  up


  F                     C                      Am                      Em
|----------------------|----------------------|-----------------------|--------------------------|
|----------1-----------|-----------1----------|-----------1-----------|-------------0------------|
|------2-------2-----0-|-------0------0-----0-|-------2-------2-----0-|-------0----------0-----0-|
|---3-------------3----|----2------------2----|----2-------------2----|----2----------------2----|
|----------------------|-3-------3------------|-0-------0-------------|--------------------------|
|-1------1-------------|----------------------|-----------------------|-0--------0---------------|
      on another love           another love              all my  tears       have been used  


  F                     C                      Am                      Em
|----------------------|----------------------|-----------------------|----------------|
|----------1-----------|-----------1----------|-----------1-----------|-0--------------|
|------2-------2-----0-|-------0------0-----0-|-------2-------2-----0-|-0--------------|
|---3-------------3----|----2------------2----|----2-------------2----|-2--------------|
|----------------------|-3-------3------------|-0-------0-------------|----------------|
|-1------1-------------|----------------------|-----------------------|-0--------------|
           up                                  ooh                     ooh
 


Suggest correction
Give kudos to tab author, rate the tab!
1 2 3 4 5
comments
print report bad tab
guest
You may want to rate the tab now too:
select rating
Wanna post a correction for this tab? Suggest correction