Oops, an error
Loading. Please wait.

Atlas Tab

440 views 3 this week
no commentswrite comment
1 2 3 4 5
2 more votes to show rating
add to favorites
launch autoscroll
font size
0
reset
how to read this tab
guitar tuner
Autoscroll
slow
fast
+/-
esc
set tempo
stop
Author
Difficulty
intermediate
Atlas by Coldplay - Acoustic Cover by the Moon Loungers 

Video here - https://www.youtube.com/watch?v=EnUZIm05yCM




INTRO

|----------9--------------9-----|----------9--------------9-----|----------9--------------9-----|
|-------------------------------|-------------------------------|-------------------------------|
|------11-----11------11-----11-|------11-----11------11-----11-|------11-----11------11-----11-|
|--11-------------11------------|--11-------------11------------|--11-------------11------------|
|-------------------------------|-------------------------------|-------------------------------|
|-------------------------------|-------------------------------|-------------------------------|


|----------9--------------9-----|
|-------------------------------|
|------11-----11------11-----11-|
|--11-------------11------------|
|-------------------------------|
|-------------------------------|



VERSE 1

|----------9--------------9-----|----------9--------------9-----|--------7-----------7----|
|-------------------------------|-------------------------------|-----7-----7-----7-----7-|
|------11-----11------11-----11-|------11-----11------11-----11-|--6-----------6----------|
|--11-------------11------------|--11-------------11------------|-------------------------|
|-------------------------------|-------------------------------|-------------------------|
|--9----------9-----------9-----|-------------------------------|--7--------7--------7----|
                                 Some saw                    the  sun


|--------7-----------7----|---------10--------------10-----|---------10--------------10-----|
|-----7-----7-----7-----7-|--------------------------------|--------------------------------|
|--6-----------6----------|-----11------11------11------11-|-----11------11------11------11-|
|-------------------------|-12--------------12-------------|-12--------------12-------------|
|-------------------------|--------------------------------|--------------------------------|
|-------------------------|-10----------10----------10-----|--------------------------------|
                                                            Some saw                     the


|---------9--------------9-----|---------9--------------9-----|---------12--------------12-----|
|------------------------------|------------------------------|--------------------------------|
|-----11-----11------11-----11-|-----11-----11------11-----11-|-----13------13------13------13-|
|-11-------------11------------|-11-------------11------------|-14--------------14-------------|
|------------------------------|------------------------------|--------------------------------|
|-9----------9-----------9-----|------------------------------|-12----------12----------12-----|
 smoke


|---------12--------------12-----|---------11--------------11-----|
|--------------------------------|--------------------------------|
|-----13------13------13------13-|-----13------13------13------13-|
|-14--------------14-------------|-13--------------13-------------|
|--------------------------------|--------------------------------|
|--------------------------------|-11----------11----------11-----|
 Some heard                  the  gun


|---------11--------------11-----|--------14------------14----|--------14------------14-----|
|--------------------------------|-----9------9------9------9-|-----9------9------9------9--|
|-----13------13------13------13-|-11------------11-----------|-11------------11------------|
|-13--------------13-------------|----------------------------|-----------------------------|
|--------------------------------|-9----------9---------9-----|-----------------------------|
|--------------------------------|----------------------------|-----------------------------|
                                                               Some bent                 the  
 

|---------12--------------12-----|---------12--------------12-----|
|--------------------------------|--------------------------------|
|-----13------13------13------13-|-----13------13------13------13-|
|-14--------------14-------------|-14--------------14-------------|
|--------------------------------|--------------------------------|
|-12----------12----------12-----|--------------------------------|
 bow


|---------16--------------16-----|---------16--------------16-----|
|-----14------14------14------14-|-----14------14------14------14-|
|-13--------------13-------------|-13--------------13-------------|
|--------------------------------|--------------------------------|
|--------------------------------|--------------------------------|
|-12----------12----------12-----|--------------------------------|
                                  Sometimes                    the


|---------17--------------17-----|---------17--------------17-----|
|-----14------14------14------14-|-----14------14------14------14-|
|-14--------------14-------------|-14--------------14-------------|
|--------------------------------|--------------------------------|
|--------------------------------|--------------------------------|
|-14----------14----------14-----|--------------------------------|
 wire


|---------16--------------16-----|--------14-------------14----|---------12--------------12-----|
|-----14------14------14------14-|-----9-------9------9------9-|--------------------------------|
|-13--------------13-------------|-11-------------11-----------|-----13------13------13------13-|
|--------------------------------|-----------------------------|-14--------------14-------------|
|--------------------------------|-9-----------9---------9-----|--------------------------------|
|-12----------12----------12-----|-----------------------------|-12----------12----------12-----|
                            must tense for                  the note              


|---------12--------------12-----|--------9------------9----|--------9------------9----|
|--------------------------------|-----9-----9------9-----9-|-----9-----9------9-----9-|
|-----13------13------13------13-|--------------------------|--------------------------|
|-14--------------14-------------|-11-----------11----------|-11-----------11----------|
|--------------------------------|--------------------------|--------------------------|
|--------------------------------|-9---------9---------9----|--------------------------|
                                                           Caught in             the


|---------11--------------11-----|---------11--------------11-----|--------9------------9----|
|--------------------------------|--------------------------------|-----9-----9------9-----9-|
|-----13------13------13------13-|-----13------13------13------13-|--------------------------|
|-13--------------13-------------|-13--------------13-------------|-11-----------11----------|
|--------------------------------|--------------------------------|--------------------------|
|-11----------11----------11-----|--------------------------------|-9---------9---------9----|
 fire                                                      say oh


|--------9------------9----|--------------------------------|--------------------------------|
|-----9-----9------9-----9-|---------14--------------14-----|---------12--------------12-----|
|--------------------------|-----11------11------11------11-|-----11------11------11------11-|
|-11-----------11----------|-13--------------13-------------|-13--------------13-------------|
|--------------------------|--------------------------------|--------------------------------|
|--------------------------|-11----------11----------11-----|--------------------------------|
                     we're about                                                  to ex-


CHORUS                         

|-9----------9----------9-----|-----9----------9----------9-|---------9----------9---------|
|-----------------------------|-----------------------------|------------------------------|
|----11---------11---------11-|--------11---------11--------|-11---------11---------11-----|
|--------11---------11--------|-11---------11---------11----|-----11---------11---------11-|
|-----------------------------|-----------------------------|------------------------------|
|-----------------------------|-----------------------------|------------------------------|
-plode                                        Carry     your  world


|-9----------9----------9-----|-----9----------9----------9-|---------9----------9---------|
|-----------------------------|-----------------------------|------------------------------|
|----11---------11---------11-|--------11---------11--------|-11---------11---------11-----|
|--------11---------11--------|-11---------11---------11----|-----11---------11---------11-|
|-----------------------------|-----------------------------|------------------------------|
|-----------------------------|-----------------------------|------------------------------|
                                                               I'll  carry your wo-oo-


|-9----------9----------9-----|-----9----------9----------9-|---------9----------9---------|
|-----------------------------|-----------------------------|------------------------------|
|----11---------11---------11-|--------11---------11--------|-11---------11---------11-----|
|--------11---------11--------|-11---------11---------11----|-----11---------11---------11-|
|-----------------------------|-----------------------------|------------------------------|
|-----------------------------|-----------------------------|------------------------------|
                       oo-oo   oo- oo- oo- oo- oo- oo-orld   


|-9----------9----------9-----|-----9----------9----------9-|---------9----------9---------|
|-----------------------------|-----------------------------|------------------------------|
|----11---------11---------11-|--------11---------11--------|-11---------11---------11-----|
|--------11---------11--------|-11---------11---------11----|-----11---------11---------11-|
|-----------------------------|-----------------------------|------------------------------|
|-----------------------------|-----------------------------|------------------------------|
          Carry your world


|-9----------9----------9-----|-----9----------9----------9-|---------9----------9---------|
|-----------------------------|-----------------------------|------------------------------|
|----11---------11---------11-|--------11---------11--------|-11---------11---------11-----|
|--------11---------11--------|-11---------11---------11----|-----11---------11---------11-|
|-----------------------------|-----------------------------|------------------------------|
|-----------------------------|-----------------------------|------------------------------|
                                  I'll carry your wo-oo-                             oo-oo    


|-9----------9----------9-----|
|-----------------------------|
|----11---------11---------11-|
|--------11---------11--------|
|-----------------------------|
|-----------------------------|
  oo- oo- oo- oo- oo- oo-orld



VERSE 2

|----------9--------------9-----|----------9--------------9-----|--------------------------------|
|-------------------------------|-------------------------------|---------12--------------12-----|
|------11-----11------11-----11-|------11-----11------11-----11-|-----11------11------11------11-|
|--11-------------11------------|--11-------------11------------|-11--------------11-------------|
|-------------------------------|-------------------------------|--------------------------------|
|-------------------------------|-------------------------------|--------------------------------|
                                 

|--------------------------------|---------10--------------10-----|---------10--------------10-----|
|---------12--------------12-----|--------------------------------|--------------------------------|
|-----11------11------11------11-|-----11------11------11------11-|-----11------11------11------11-|
|-11--------------11-------------|-12--------------12-------------|-12--------------12-------------|
|--------------------------------|--------------------------------|--------------------------------|
|--------------------------------|--------------------------------|--------------------------------|
                                                                   Some far                      a-


|---------9--------------9-----|---------9--------------9-----|---------12--------------12-----|
|------------------------------|------------------------------|--------------------------------|
|-----11-----11------11-----11-|-----11-----11------11-----11-|-----13------13------13------13-|
|-11-------------11------------|-11-------------11------------|-14--------------14-------------|
|------------------------------|------------------------------|--------------------------------|
|------------------------------|------------------------------|--------------------------------|
 way


|---------12--------------12-----|---------11--------------11-----|---------11--------------11-----|
|--------------------------------|--------------------------------|--------------------------------|
|-----13------13------13------13-|-----13------13------13------13-|-----13------13------13------13-|
|-14--------------14-------------|-13--------------13-------------|-13--------------13-------------|
|--------------------------------|--------------------------------|--------------------------------|
|--------------------------------|--------------------------------|--------------------------------|
 Some search                  for gold


|---------14--------------14-----|---------14--------------14-----|---------12--------------12-----|
|--------------------------------|--------------------------------|--------------------------------|
|-----13------13------13------13-|-----13------13------13------13-|-----13------13------13------13-|
|-16--------------16-------------|-16--------------16-------------|-14--------------14-------------|
|--------------------------------|--------------------------------|--------------------------------|
|--------------------------------|--------------------------------|--------------------------------|
                             Some  dragon                      to  slay 
 

|---------12--------------12-----|---------16--------------16-----|---------16--------------16-----|
|--------------------------------|-----14------14------14------14-|-----14------14------14------14-|
|-----13------13------13------13-|-13--------------13-------------|-13--------------13-------------|
|-14--------------14-------------|--------------------------------|--------------------------------|
|--------------------------------|--------------------------------|--------------------------------|
|--------------------------------|--------------------------------|--------------------------------|
                                                                    Heaven                      we 


|---------17--------------17-----|---------17--------------17-----|---------16--------------16-----|
|-----14------14------14------14-|-----14------14------14------14-|-----14------14------14------14-|
|-14--------------14-------------|-14--------------14-------------|-13--------------13-------------|
|--------------------------------|--------------------------------|--------------------------------|
|--------------------------------|--------------------------------|--------------------------------|
|--------------------------------|--------------------------------|--------------------------------|
 hope                                                                                           is


|---------14--------------14-----|---------12--------------12-----|---------12--------------12-----|
|--------------------------------|--------------------------------|--------------------------------|
|-----13------13------13------13-|-----13------13------13------13-|-----13------13------13------13-|
|-16--------------16-------------|-14--------------14-------------|-14--------------14-------------|
|--------------------------------|--------------------------------|--------------------------------|
|--------------------------------|--------------------------------|--------------------------------|
 just up                     the   road


|--------9------------9----|--------9------------9----|---------11--------------11-----|
|-----9-----9------9-------|-----9-----9------9-------|--------------------------------|
|------------------------9-|------------------------9-|-----13------13------13------13-|
|-11-----------11----------|-11-----------11----------|-13--------------13-------------|
|--------------------------|--------------------------|--------------------------------|
|--------------------------|--------------------------|--------------------------------|
                            Show me                the way


|---------11--------------11-----|--------9------------9----|--------9------------9----|
|--------------------------------|-----9-----9------9-----9-|-----9-----9------9-----9-|
|-----13------13------13------13-|--------------------------|--------------------------|
|-13--------------13-------------|-11-----------11----------|-11-----------11----------|
|--------------------------------|--------------------------|--------------------------|
|--------------------------------|--------------------------|--------------------------|
 Lord                     'cos I                                                 am a- 


|--------------------------------|--------------------------------|
|---------14--------------14-----|---------12--------------12-----|
|-----11------11------11------11-|-----11------11------11------11-|
|-13--------------13-------------|-13--------------13-------------|
|--------------------------------|--------------------------------|
|--------------------------------|--------------------------------|
 bout                                                    to ex-


CHORUS                         

|-9----------9----------9-----|-----9----------9----------9-|---------9----------9---------|
|-----------------------------|-----------------------------|------------------------------|
|----11---------11---------11-|--------11---------11--------|-11---------11---------11-----|
|--------11---------11--------|-11---------11---------11----|-----11---------11---------11-|
|-----------------------------|-----------------------------|------------------------------|
|-----------------------------|-----------------------------|------------------------------|
-plode                                        Carry     your  world


|-9----------9----------9-----|-----9----------9----------9-|---------9----------9---------|
|-----------------------------|-----------------------------|------------------------------|
|----11---------11---------11-|--------11---------11--------|-11---------11---------11-----|
|--------11---------11--------|-11---------11---------11----|-----11---------11---------11-|
|-----------------------------|-----------------------------|------------------------------|
|-----------------------------|-----------------------------|------------------------------|
                                                               I'll  carry your wo-oo-


|-9----------9----------9-----|-----9----------9----------9-|---------9----------9---------|
|-----------------------------|-----------------------------|------------------------------|
|----11---------11---------11-|--------11---------11--------|-11---------11---------11-----|
|--------11---------11--------|-11---------11---------11----|-----11---------11---------11-|
|-----------------------------|-----------------------------|------------------------------|
|-----------------------------|-----------------------------|------------------------------|
                       oo-oo   oo- oo- oo- oo- oo- oo-orld   


|-9----------9----------9-----|-----9----------9----------9-|---------9----------9---------|
|-----------------------------|-----------------------------|------------------------------|
|----11---------11---------11-|--------11---------11--------|-11---------11---------11-----|
|--------11---------11--------|-11---------11---------11----|-----11---------11---------11-|
|-----------------------------|-----------------------------|------------------------------|
|-----------------------------|-----------------------------|------------------------------|
          Carry your world


|-9----------9----------9-----|-----9----------9----------9-|---------9----------9---------|
|-----------------------------|-----------------------------|------------------------------|
|----11---------11---------11-|--------11---------11--------|-11---------11---------11-----|
|--------11---------11--------|-11---------11---------11----|-----11---------11---------11-|
|-----------------------------|-----------------------------|------------------------------|
|-----------------------------|-----------------------------|------------------------------|
                                  I'll carry your wo-oo-                             oo-oo    


|-9----------9----------9-----|-----9----------9----------9-|---------9----------9---------|
|-----------------------------|-----------------------------|------------------------------|
|----11---------11---------11-|--------11---------11--------|-11---------11---------11-----|
|--------11---------11--------|-11---------11---------11----|-----11---------11---------11-|
|-----------------------------|-----------------------------|------------------------------|
|-----------------------------|-----------------------------|------------------------------|
  oo- oo- oo- oo- oo- oo-orld                                        Carry your  world


|-9----------9----------9-----|-----9----------9----------9-|---------9----------9---------|
|-----------------------------|-----------------------------|------------------------------|
|----11---------11---------11-|--------11---------11--------|-11---------11---------11-----|
|--------11---------11--------|-11---------11---------11----|-----11---------11---------11-|
|-----------------------------|-----------------------------|------------------------------|
|-----------------------------|-----------------------------|------------------------------|
                                                               


|-9----------9----------9-----|-----9----------9----------9-|---------9----------9---------|
|-----------------------------|-----------------------------|------------------------------|
|----11---------11---------11-|--------11---------11--------|-11---------11---------11-----|
|--------11---------11--------|-11---------11---------11----|-----11---------11---------11-|
|-----------------------------|-----------------------------|------------------------------|
|-----------------------------|-----------------------------|------------------------------|
   and all your  hu-uu-                            uu-uu   uu- uu- uu- uu- uu- uu-urt   



SOLO

|----------------16-16-16-16-|-16-14-------------------|-------------16-16-16-16-|
|----------------------------|-------16-14-------14-16-|-17-16-17----------------|
|----------15----------------|-------------15-16-------|-------------------------|
|-16p15-16-------------------|-------------------------|-------------------------|
|----------------------------|-------------------------|-------------------------|
|----------------------------|-------------------------|-------------------------|
              But    I    won't    cry    for    yesterday      there's  an 


|-16-18-14-16-------------|-------------16-16-16-16-|-16-14-----------------|
|-------------------14-16-|-17-16-17----------------|-------16-14-------14--|
|-------------15-16-------|-------------------------|-------------15-16-----|
|-------------------------|-------------------------|-----------------------|
|-------------------------|-------------------------|-----------------------|
|-------------------------|-------------------------|-----------------------|
   ordinary            world        Somehow      I      have      to       find


|-------------|----------------|
|-------------|----------------|
|-------16p15-|-16p15--18------|
|-------------|----------------|
|-------------|----------------|
|-------------|----------------|


|----------------16-16-16-16-|-16-14-------------------|-------------16-16-16-16-|
|----------------------------|-------16-14-------14-16-|-17-16-17----------------|
|----------15----------------|-------------15-16-------|-------------------------|
|-16p15-16-------------------|-------------------------|-------------------------|
|----------------------------|-------------------------|-------------------------|
|----------------------------|-------------------------|-------------------------|
             And    as    I    try    to    make    my    way    to    the    


|-16-18-14-16-------------|-------------16-16-16-16-|-16-14-----------------|
|-------------------14-16-|-17-16-17----------------|-------16-14-------14--|
|-------------15-16-------|-------------------------|-------------15-16-----|
|-------------------------|-------------------------|-----------------------|
|-------------------------|-------------------------|-----------------------|
|-------------------------|-------------------------|-----------------------|
   ordinary             world        I      will      learn       to       survive

|-------------|----------------|
|-------------|----------------|
|-------16p15-|-16p15--18------|
|-------------|----------------|
|-------------|----------------|
|-------------|----------------|


Suggest correction
Give kudos to tab author, rate the tab!
1 2 3 4 5
comments
print report bad tab
guest
You may want to rate the tab now too:
select rating
Wanna post a correction for this tab? Suggest correction