Oops, an error
Loading. Please wait.

Grow Old With Me Tab

729 views 1 this week
1 commentread comment
1 2 3 4 5
1 last vote to show rating
add to favorites
launch autoscroll
font size
0
reset
how to read this tab
guitar tuner
Autoscroll
slow
fast
+/-
esc
set tempo
stop
Author
Difficulty
Capo
intermediate
7th fret
Grow Old With Me by Tom Odell - Acoustic Cover by the Moon Loungers

Video here - https://www.youtube.com/watch?v=d8iRv6y4jWw


CHORDS (Capo 7th fret)

          EADGBE
         --------
C         x32010
Csus4add9 x33030
Am/C      x3x210
F/C       x3x211
G         3x0003
F         1x321x
Cmaj7     x3200x




INTRO

 C               Csus4add9       C               Csus4add9
|-0-------------|---------------|-0-------------|---------------|
|---------1-----|-3---------1h3-|---------1-----|-3---------1h3-|
|------0----0---|------0--------|------0----0---|------0--------|
|----2--------2-|----3----3-----|----2--------2-|----3----3-----|
|-3-------------|-3-------------|-3-------------|-3---------3---|
|---------------|---------------|---------------|---------------|


 C               Csus4add9       C             Am/C
|-0-------------|---------------|------------|---------------|
|---------1-----|-3-------3-----|-1----1---3-|-1----1----1h3-|
|------0----0---|------0----0---|--------0---|----2----2-----|
|----2--------2-|----3--------3-|----2-------|---------------|
|-3-------------|-3-------------|-3----------|-3---------3---|
|---------------|---------------|------------|---------------|


 C               F/C             C               Csus4add9         
|-3-------3-----|-1-------------|-0-------------|---------------|
|-1----1----1---|------1----1h3-|---------1-----|-3---------1h3-|
|-0--0--------0-|----2----2-----|------0----0---|------0--------|
|---------------|---------------|----2--------2-|----3----3-----|
|-3-------------|-3---------3---|-3-------------|-3-------------|
|---------------|---------------|---------------|---------------|


 C               Csus4add9       C               
|-0-------------|---------------|---------------|----------------|
|---------1-----|-3-------3-----|---------1-----|--------1-------|
|------0----0---|------0----0---|------0----0---|-----0----0---0-|
|----2--------2-|----3--------3-|----2--------2-|---2--------2---|
|-3-------------|-3-------------|-3-------------|-3--------------|
|---------------|---------------|---------------|----------------|



VERSE 1

 C               
|---------------|----------------|-0-------------|-----------------|
|---------1-----|--------1-------|---------1-----|-3---------1-h-3-|
|------0----0---|-----0----0---0-|------0----0---|------0----------|
|----2--------2-|---2--------2---|----2--------2-|----3----3-------|
|-3-------------|-3--------------|-3-------------|-3---------------|
|---------------|----------------|---------------|-----------------|
                             I can feel    you breathing    with your


 C               Csus4add9       C               Csus4add9
|-0-------------|---------------|-0-------------|---------------|
|---------1-----|-3---------1h3-|---------1-----|-3---------1h3-|
|------0----0---|------0--------|------0----0---|-0----0--------|
|----2--------2-|----3----3-----|----2--------2-|-3--3----3-----|
|-3-------------|-3-------------|-3-------------|-3-------------|
|---------------|---------------|---------------|---------------|
 hair      on my skin      as we lie      here within       the


 C             Am/C          C                 F/C               
|-------------|-------------|-3-------3-------|-1---------------|
|-1----1----3-|-1----1----1-|-1----1----1-----|-1----1----1-h-3-|
|---------0---|----2----2---|-0--0---------0--|-2--2----2-------|
|----2--------|-------------|-----------------|-----------------|
|-3-----------|-3---------3-|-3---------------|-3---------3-----|
|-------------|-------------|-----------------|-----------------|
night                        I'll     pull the sheets   when it's


C               Csus4add9            C                    Csus4add9              
|-0---------------|-------------------|--0---------------|----------------|
|---------1-------|-3----------1-h-3--|----------1-------|--3-------3-----|
|------0----0-----|-0----0------------|-------0----0-----|--0----0----0---|
|----2---------2--|-3--3----3---------|-----2---------2--|--3--3--------3-|
|-3---------------|-3-----------------|--3---------------|--3-------------|
|-----------------|-------------------|------------------|----------------|
cold       on your feet      cos you'll fall      back to sleep     every


 C               
|---------------|----------------|
|-1-------1-----|--------1-------|
|------0----0---|-----0----0---0-|
|----2--------2-|---2--------2---|
|-3-------------|-3--------------|
|---------------|----------------|
time



CHORUS

 F               G                 F               G
|---------------|--------3--------|---------------|--------3--------|
|---------1-----|------0----0-----|---------1-----|------0----0-----|
|------2----2---|----0--------0---|------2----2---|----0--------0---|
|----3--------3-|---------------0-|----3--------3-|---------------0-|
|---------------|-----------------|---------------|-----------------|
|-1-------------|-3---------------|-1-------------|-3---------------|
Grow  old with   me         let us share what we   see         oh the


 F               G                   
|---------------|--------3----------|
|---------1-----|------0-----0----0-|
|------2----2---|----0----------0---|
|----3--------3-|-------------------|
|---------------|-------------------|
|-1-------------|-3-----------------|
best   it could  be      you and I  



LINK

 C               Csus4add9        C               Csus4add9
|-0-------------|----------------|-0-------------|-----------------|
|---------1-----|-3-----3----1h3-|---------1-----|-3---------1-h-3-|
|------0----0---|-----0----------|------0----0---|------0----------|
|----2--------2-|---3------3-----|----2--------2-|----3----3-------|
|-3-------------|-3----------3---|-3-------------|-3---------------|
|---------------|----------------|---------------|-----------------|
                                                            And our


VERSE 2

 C                  Csus4add9          C                Csus4add9
|-0----------------|------------------|-0--------------|------------------|
|---------1--------|--3---------1-h-3-|---------1------|-3-----3----1-h-3-|
|------0-----0-----|-------0----------|------0----0----|-----0------------|
|----2----------2--|-----3----3-------|----2--------2--|---3------3-------|
|-3----------------|--3---------------|-3--------------|-3----------3-----|
|------------------|------------------|----------------|------------------|
hands      they might age      and our  bod  -  ies will change    but we'll


 C                  Csus4add9       C              Am/C
|-0----------------|---------------|-0------------|-------------|
|---------1--------|-3---------1h3-|------1----3--|-1----1----1-|
|------0-----0-----|------0--------|---------0----|----2----2---|
|----2----------2--|----3----3-----|----2---------|-------------|
|-3----------------|-3-------------|-3------------|-3---------3-|
|------------------|---------------|--------------|-------------|
still       be the same       as we are


 C                  F/C                C               Csus4add9         
|-3----3-----3-----|-1----------------|-0---------------|-----------------|
|-1--1----1-----1--|-1----1----1-h-3--|---------1-------|-3---------1-h-3-|
|-0----------------|-2--2----2--------|------0-----0----|------0----------|
|------------------|------------------|----2----------2-|----3----3-------|
|-3----------------|-3---------3------|-3---------------|-3---------------|
|------------------|------------------|-----------------|-----------------|
 We'll     sing our song      when our hair      aint so blonde    and our


 C                Csus4add9       C              
|-0--------------|---------------|---------------|----------------|
|---------1------|-3-------3-----|-1-------1-----|-------1--------|
|------0----0----|------0----0---|------0----0---|-----0----0---0-|
|----2--------2--|----3--------3-|----2--------2-|---2--------2---|
|-3--------------|-3-------------|-3-------------|-3--------------|
|----------------|---------------|---------------|----------------|
 child - ren have sung     we were right



CHORUS

 F               G                 F               G
|---------------|--------3--------|---------------|--------3--------|
|---------1-----|------0----0-----|---------1-----|------0----0-----|
|------2----2---|----0--------0---|------2----2---|----0--------0---|
|----3--------3-|---------------0-|----3--------3-|---------------0-|
|---------------|-----------------|---------------|-----------------|
|-1-------------|-3---------------|-1-------------|-3---------------|
Grow  old with   me         let us share what we   see         oh the


 F               G                   
|---------------|--------3----------|
|---------1-----|------0-----0----0-|
|------2----2---|----0----------0---|
|----3--------3-|-------------------|
|---------------|-------------------|
|-1-------------|-3-----------------|
best   it could  be      you and I  



LINK

 C               Csus4add9        C               Csus4add9
|---------------|----------------|---------------|----------------|
|-1-------1-----|-3-----3----1h3-|-1-------1-----|-3-----3----1h3-|
|------0----0---|-----0----------|------0----0---|-----0----------|
|----2--------2-|---3------3-----|----2--------2-|---3------3-----|
|-3-------------|-3----------3---|-3-------------|-3----------3---|
|---------------|----------------|---------------|----------------|
                                                            And the



VERSE 3

 C                  Csus4add9          C                 Csus4add9
|-0----------------|------------------|-0---------------|-----------------|
|---------1--------|--3---------1-h-3-|---------1-------|--3--------1-h-3-|
|------0-----0-----|-------0----------|------0----0-----|------0----------|
|----2----------2--|-----3----3-------|----2----------2-|----3----3-------|
|-3----------------|--3---------------|-3---------------|--3--------------|
|------------------|------------------|-----------------|-----------------|
hairs      they stand up       and my feet      start to thump    yeah the


 C                  Csus4add9         C              Am/C
|-0----------------|-----------------|-0------------|---------------|
|---------1--------|-3---------1-h-3-|------1----3--|-1----1----1h3-|
|------0-----0-----|------0----------|---------0----|----2----2-----|
|----2----------2--|----3----3-------|----2---------|---------------|
|-3----------------|-3---------------|-3------------|-3---------3---|
|------------------|-----------------|--------------|---------------|
Feel    -   ing is  drea   -  ming around   


 C                  F/C                C               Csus4add9         
|-3-------3-----|-1----------------|-0---------------|-----------------|
|-1----1----1---|-1----1----1-h-3--|---------1-------|-3---------1-h-3-|
|-0--0--------0-|-2--2----2--------|------0-----0----|------0----------|
|---------------|------------------|----2----------2-|----3----3-------|
|-3-------------|-3---------3------|-3---------------|-3---------------|
|---------------|------------------|-----------------|-----------------|
 you'll    be the one        make me hard     make me calm       make me


 C                  Csus4add9       C              
|-0----------------|---------------|---------------|----------------|
|---------1--------|-3-------3-----|-1-------1-----|-------1--------|
|------0-----0-----|------0----0---|------0----0---|-----0----0---0-|
|----2----------2--|----3--------3-|----2--------2-|---2--------2---|
|-3----------------|-3-------------|-3-------------|-3--------------|
|------------------|---------------|---------------|----------------|
 feel      like I'm rea   -   al alive



CHORUS

 F               G                 F               G
|---------------|--------3--------|---------------|-----------------|
|---------1-----|------0----0-----|---------1-----|-----0---1p0-----|
|------2----2---|----0--------0---|------2----2---|---0---------0---|
|----3--------3-|---------------0-|----3--------3-|---------------0-|
|---------------|-----------------|---------------|-----------------|
|-1-------------|-3---------------|-1-------------|-3-----3---------|
Grow  old with   me         let us share what we   see        oh the


 F               G                   
|---------------|-3------------------|----------------|-----------------|
|---------1-----|-------0-----0----0-|-------1--------|---------0-------|
|------2----2---|-----0----------0---|-----0----0---0-|-----0-----0---0-|
|----3--------3-|---0----------------|---2--------2---|---2---------2---|
|---------------|--------------------|-3--------------|-3-----3---------|
|-1-------------|-3------------------|----------------|-----------------|
best   it could  be       you and I  


 F               G                  F               G
|---------------|----------3-------|---------------|-----------------|
|---------1-----|------0-----0-----|---------1-----|-----0---1p0-----|
|------2----2---|----0---------0---|------2----2---|---0---------0---|
|----3--------3-|----------------0-|----3--------3-|---------------0-|
|---------------|------------------|---------------|-----------------|
|-1-------------|-3------3---------|-1-------------|-3-----3---------|
Grow  old with   me   HEREHERE  let us share what we   see        oh the


 F               G                   C               F/C 
|---------------|-3-----------------|---------3-----|-1-------------|
|---------1-----|-----------0-------|-1----1----1---|------1----1h3-|
|------2----2---|-----0--------0----|-0--0--------0-|----2----2-----|
|----3--------3-|---0-------------0-|-2-------------|---------------|
|---------------|-------------------|-3-------------|-3---------3---|
|-1-------------|-3-----------------|---------------|---------------|
best   it could  be     you and I  


 C               Csus4add9       C              Csus4add9          
|-0-------------|---------------|--------------|----------------|
|---------1-----|-3----3----1h3-|-1-------1----|-3------3-------|
|------0----0---|---------------|------0----0--|------0---0---0-|
|----2--------2-|----3----3-----|----2---------|----3-------3---|
|-3-------------|-3-------------|-3------------|-3--------------|
|---------------|---------------|--------------|----------------|


 C              C    
|--------------|-0--------|
|-1----1-----3-|-1--------|
|--------0-----|-0--------|
|----2-----2---|----------|
|-3------------|-3--------|
|--------------|----------|



Suggest correction
Give kudos to tab author, rate the tab!
1 2 3 4 5
comments
print report bad tab
1 comment total.
0 reply
MrMarexo 125 Jun 05, 2015 03:59 AM

guys this is really great ... thank you :)

guest
You may want to rate the tab now too:
select rating
Wanna post a correction for this tab? Suggest correction