Oops, an error
Loading. Please wait.

Here Comes The Sun Tab

2,374 views 18 this week
no commentswrite comment
1 2 3 4 5
x 3
add to favorites
launch autoscroll
font size
0
reset
how to read this tab
guitar tuner
Autoscroll
slow
fast
+/-
esc
set tempo
stop
Help us to improve Ultimate-Guitar.com Take our survey!
×
Author
Difficulty
  follow
intermediate
Here Comes the Sun by The Beatles - Acoustic Cover by the Moon Loungers (Capo on fret 7)

Video here - http://www.youtube.com/watch?v=uLiDE9b0_bQ


CHORDS

         EADGBE                        EADGBE
        --------                      --------
D        xx0232             E7         020100
Gmaj7    3x0003             F          xx321x
A7       002020             C          x3201x
Cadd9    x32030             G          320003
          



INTRO
 
 D                                             Gmaj7                     A7
|----2-----0--2--------|-2-----0--------------|----2-----0--------------|------------0--------|
|-------3-----------3--|-------------3-----0--|----------------3--------|-2p0--2--3-----2-----|
|----2-----------2-----|----------------2-----|-------------------0-----|-0----------------0--|
|-0--------0-----------|----0-----0-----------|----------------------0--|-2-------------------|
|----------------------|----------------------|-------------------------|-0-------0-----------|
|----------------------|----------------------|-3-----3-----3-----------|---------------------|


 D                                               Gmaj7                     A7
|-------2-----0--2-------|-2-----0--------------|----2-----0--------------|----------|
|----------3-----------3-|-------------3-----0--|----------------3--------|-2--------|
|----2--------------2----|----------------2-----|-------------------0-----|-0--------|
|-0-----------0----------|----0-----0-----------|----------------------0--|-2--------|
|------------------------|----------------------|-------------------------|-0--------|
|------------------------|----------------------|-3-----3-----3-----------|----------|



CHORUS

 D                                             Gmaj7                     E7
|-------2----0--2-------|----2-----0--2-------|-------2----0----2-------|-------------0----------|
|---------------------3-|-------3-----------0-|--------------------0----|----------------0-----0-|
|----2-------------2----|-2--------------2----|----0------------------0-|-------1-----------1----|
|-0---------------------|---------------------|-------------------------|----0-------------------|
|-----------------------|---------------------|-------------------------|----------2-------------|
|-----------------------|---------------------|-3-----------------------|-0----------------------|
      Here comes the sun     do do do do             Here comes the      sun   and I    say


 D                                                 
|-------2--0-------------|--------0--------0--------|-0--------0------------|
|---------------3-----0--|-----3--------3--------3--|-------3-----3p2p0--2--|
|----2-------------2-----|-/4--------2--------0-----|----2------------------|
|-0----------------------|--------------------------|-----------------------|
|------------------------|--------------------------|-----------------------|
|------------------------|--------------------------|-----------------------|
       it's alright



VERSE 1

 D                                                Gmaj7                     A7
|-------2------0--2-------|-2-----0--------------|----2-----0--------------|------------0-------|
|----------3------------3-|-------------3-----0--|----------------3--------|-2p0--2--3-----2----|
|----2---------------2----|----------------2-----|-------------------0-----|-0----------------0-|
|-0------------0----------|----0-----0-----------|----------------------0--|-2------------------|
|-------------------------|----------------------|-------------------------|-0-------0----------|
|-------------------------|----------------------|-3-----3-----3-----------|--------------------|
      Little darling         it's   been a    long   cold   lonely       winter


 D                                              Gmaj7                    A7
|-------2-----0--2-------|-2-----0-------------|----2-----0-------------|---------------0-------|
|----------3-----------3-|-------------3-----0-|----------------3-------|-2--------2h3-----2----|
|----2--------------2----|----------------2----|-------------------0----|-0--0----------------0-|
|-0-----------0----------|----0-----0----------|----------------------0-|-2-----2---------------|
|------------------------|---------------------|------------------------|-0---------------------|
|------------------------|---------------------|-3-----3-----3----------|-----------------------|
      Little darling,        it feels like years    since it's  been  here



CHORUS

 D                                              Gmaj7                     E7
|-------2----0--2--------|----2-----0--2-------|-------2----0----2-------|-------------0----------|
|---------------------3--|-------3-----------0-|--------------------0----|----------------0-----0-|
|----2-------------2-----|-2--------------2----|----0------------------0-|-------1-----------1----|
|-0----------------------|---------------------|-------------------------|----0-------------------|
|------------------------|---------------------|-------------------------|----------2-------------|
|------------------------|---------------------|-3-----------------------|-0----------------------|
      Here comes the sun      do do do do             Here comes the      sun   and I    say


 D                                                 
|-------2--0-------------|--------0--------0--------|-0--------0------------|
|---------------3-----0--|-----3--------3--------3--|-------3-----3p2p0--2--|
|----2-------------2-----|-/4--------2--------0-----|----2------------------|
|-0----------------------|--------------------------|-----------------------|
|------------------------|--------------------------|-----------------------|
|------------------------|--------------------------|-----------------------|
       it's alright


 D                      A7
|----2-----0--2--------|------------0--------|
|-------3--------3-----|-2p0--2--3-----2-----|
|----2--------------2--|-0----------------0--|
|-0--------0-----------|-2-------------------|
|----------------------|-0-------0-----------|
|----------------------|---------------------|



VERSE 2

 D                                                Gmaj7                    A7
|-------2------0--2-------|-2------0-------------|----2-----0-------------|------------0-------|
|----------3------------3-|--------------3-----0-|----------------3-------|-2p0--2--3-----2----|
|----2---------------2----|-----------------2----|-------------------0----|-0----------------0-|
|-0------------0----------|----0------0----------|----------------------0-|-2------------------|
|-------------------------|----------------------|------------------------|-0-------0----------|
|-------------------------|----------------------|-3-----3-----3----------|--------------------|
      Little darling          the smiles re - turn - ing    to the      faces


 D                                              Gmaj7                    A7
|-------2-----0--2-------|-2-----0-------------|----2-----0-------------|---------------0--------|
|----------3-----------3-|-------------3-----0-|----------------3-------|-2--------2h3------2----|
|----2--------------2----|----------------2----|-------------------0----|-0--0-----------------0-|
|-0-----------0----------|----0-----0----------|----------------------0-|-2-----2----------------|
|------------------------|---------------------|------------------------|-0----------------------|
|------------------------|---------------------|-3-----3-----3----------|------------------------|
      Little darling,        it feels like years  since  it's  been here



CHORUS 

 D                                             Gmaj7                     E7
|-------2----0--2-------|----2-----0--2-------|-------2----0----2-------|-------------0----------|
|---------------------3-|-------3-----------0-|--------------------0----|----------------0-----0-|
|----2-------------2----|-2--------------2----|----0------------------0-|-------1-----------1----|
|-0---------------------|---------------------|-------------------------|----0-------------------|
|-----------------------|---------------------|-------------------------|----------2-------------|
|-----------------------|---------------------|-3-----------------------|-0----------------------|
      Here comes the sun     do do do do             Here comes the      sun   and I    say


 D                                                 
|-------2--0-------------|--------0--------0--------|-0--------0----------------|
|---------------3-----0--|-----3--------3--------3--|-------3-----3-p-2-p-0--2--|
|----2-------------2-----|-/4--------2--------0-----|----2----------------------|
|-0----------------------|--------------------------|---------------------------|
|------------------------|--------------------------|---------------------------|
|------------------------|--------------------------|---------------------------|
       it's alright


 D                      A7
|----2-----0--2--------|-------------|
|-------3--------3-----|----2--------|
|----2--------------2--|-------0-----|
|-0--------0-----------|----------2--|
|----------------------|-0-----------|
|----------------------|-------------|



MIDDLE 8

            F         C         G                D
|----------|-------------------|----------------|-----------2----------|
|----------|-------1-----------|----------------|--------3-----3-------|
|----------|----2-----------0--|-------0--------|-----2-----------2----|
|-------2--|-3-----------2-----|----0--------0--|--0-----------------0-|
|-0--4-----|----------3--------|----------2-----|----------------------|
|----------|-------------------|-3--------------|----------------------|


 A7                       F         C         G                D
|-------------|----------|-------------------|----------------|-----------2----------|
|-2--------2--|----------|-------1-----------|----------------|--------3-----3-------|
|----0--------|----------|----2-----------0--|-------0--------|-----2-----------2----|
|-------2-----|-------2--|-3-----------2-----|----0--------0--|--0-----------------0-|
|-0-----------|-0--4-----|----------3--------|----------2-----|----------------------|
|-------------|----------|-------------------|-3--------------|----------------------|


 A7                       F         C         G                D
|-------------|----------|-------------------|----------------|-----------2----------|
|-2--------2--|----------|-------1-----------|----------------|--------3-----3-------|
|----0--------|----------|----2-----------0--|-------0--------|-----2-----------2----|
|-------2-----|-------2--|-3-----------2-----|----0--------0--|--0-----------------0-|
|-0-----------|-0--4-----|----------3--------|----------2-----|----------------------|
|-------------|----------|-------------------|-3--------------|----------------------|
                          Sun      sun        sun     here it   comes
         

 A7                       F         C         G                D
|-------------|----------|-------------------|----------------|-----------2----------|
|-2--------2--|----------|-------1-----------|----------------|--------3-----3-------|
|----0--------|----------|----2-----------0--|-------0--------|-----2-----------2----|
|-------2-----|-------2--|-3-----------2-----|----0--------0--|--0-----------------0-|
|-0-----------|-0--4-----|----------3--------|----------2-----|----------------------|
|-------------|----------|-------------------|-3--------------|----------------------|
                          Sun      sun        sun     here it   comes


 A7                       F         C         G                D
|-------------|----------|-------------------|----------------|-----------2----------|
|-2--------2--|----------|-------1-----------|----------------|--------3-----3-------|
|----0--------|----------|----2-----------0--|-------0--------|-----2-----------2----|
|-------2-----|-------2--|-3-----------2-----|----0--------0--|--0-----------------0-|
|-0-----------|-0--4-----|----------3--------|----------2-----|----------------------|
|-------------|----------|-------------------|-3--------------|----------------------|
                          Sun      sun        sun     here it   comes


 A7                       F         C         G                D
|-------------|----------|-------------------|----------------|-----------2----------|
|-2--------2--|----------|-------1-----------|----------------|--------3-----3-------|
|----0--------|----------|----2-----------0--|-------0--------|-----2-----------2----|
|-------2-----|-------2--|-3-----------2-----|----0--------0--|--0-----------------0-|
|-0-----------|-0--4-----|----------3--------|----------2-----|----------------------|
|-------------|----------|-------------------|-3--------------|----------------------|
                          Sun      sun        sun     here it   comes


 A7
|---------------------|-------------------|--------------------|----------0-----------|
|-2--------2p0--2--3--|---------3\2/3--5--|----------5p3h5--8--|-------------8--------|
|-0--0-------------0--|----0-----------0--|----0------------0--|----0-----------0-----|
|-2-----2----------4--|-4-----4--------5--|-5-----5---------9--|-9-----9-----------9--|
|-0----------------0--|----------------0--|-----------------0--|----------------------|
|---------------------|-------------------|--------------------|----------------------|



VERSE 3

 D                                                Gmaj7                    A7
|-------2------0--2-------|-2------0-------------|----2-----0-------------|------------0-------|
|----------3------------3-|--------------3-----0-|----------------3-------|-2p0--2--3-----2----|
|----2---------------2----|-----------------2----|-------------------0----|-0----------------0-|
|-0------------0----------|----0------0----------|----------------------0-|-2------------------|
|-------------------------|----------------------|------------------------|-0-------0----------|
|-------------------------|----------------------|-3-----3-----3----------|--------------------|
      Little darling          I  feel   that  ice    is   slowly     melt - ing 


 D                                              Gmaj7                    A7
|-------2-----0--2-------|-2-----0-------------|----2-----0-------------|---------------0--------|
|----------3-----------3-|-------------3-----0-|----------------3-------|-2--------2h3------2----|
|----2--------------2----|----------------2----|-------------------0----|-0--0-----------------0-|
|-0-----------0----------|----0-----0----------|----------------------0-|-2-----2----------------|
|------------------------|---------------------|------------------------|-0----------------------|
|------------------------|---------------------|-3-----3-----3----------|------------------------|
      Little darling,        it seems like years  since  it's  been clear



CHORUS

 D                                             Gmaj7                      E7
|-------2----0--2--------|----2-----0--2-------|-------2----0----2-------|-------------0----------|
|---------------------3--|-------3-----------0-|--------------------0----|----------------0-----0-|
|----2-------------2-----|-2--------------2----|----0------------------0-|-------1-----------1----|
|-0----------------------|---------------------|-------------------------|----0-------------------|
|------------------------|---------------------|-------------------------|----------2-------------|
|------------------------|---------------------|-3-----------------------|-0----------------------|
      Here comes the sun      do do do do             Here comes the      sun   and I    say


 D                                                 
|-------2--0-------------|--------0--------0--------|-0--------0------------|
|---------------3-----0--|-----3--------3--------3--|-------3-----3p2p0--2--|
|----2-------------2-----|-/4--------2--------0-----|----2------------------|
|-0----------------------|--------------------------|-----------------------|
|------------------------|--------------------------|-----------------------|
|------------------------|--------------------------|-----------------------|
       it's alright



FINAL CHORUS

 D                                             Gmaj7                      E7
|-------2----0--2--------|----2-----0--2-------|-------2----0----2-------|-------------0----------|
|---------------------3--|-------3-----------0-|--------------------0----|----------------0-----0-|
|----2-------------2-----|-2--------------2----|----0------------------0-|-------1-----------1----|
|-0----------------------|---------------------|-------------------------|----0-------------------|
|------------------------|---------------------|-------------------------|----------2-------------|
|------------------------|---------------------|-3-----------------------|-0----------------------|
      Here comes the sun      do do do do             Here comes the      sun   and I    say


 D                                                 
|-------2--0-------------|--------0--------0--------|-0--------0------------|
|---------------3-----0--|-----3--------3--------3--|-------3-----3p2p0--2--|
|----2-------------2-----|-/4--------2--------0-----|----2------------------|
|-0----------------------|--------------------------|-----------------------|
|------------------------|--------------------------|-----------------------|
|------------------------|--------------------------|-----------------------|
       it's alright


 D                                                 
|-------2--0-------------|--------0--------0--------|-0--------0------------|
|---------------3-----0--|-----3--------3--------3--|-------3-----3p2p0--2--|
|----2-------------2-----|-/4--------2--------0-----|----2------------------|
|-0----------------------|--------------------------|-----------------------|
|------------------------|--------------------------|-----------------------|
|------------------------|--------------------------|-----------------------|
       it's alright


 F         C         G                D
|-------------------|----------------|-2----------|
|-------1-----------|----------------|-3----------|
|----2-----------0--|-------0--------|-2----------|
|-3-----------2-----|----0--------0--|-0----------|
|----------3--------|----------2-----|------------|
|-------------------|-3--------------|------------|




Suggest correction
Give kudos to tab author, rate the tab!
1 2 3 4 5
comments
print report bad tab
guest
You may want to rate the tab now too:
select rating
Wanna post a correction for this tab? Suggest correction