Oops, an error
Loading. Please wait.

In The Summertime Tab

846 views 1 this week
no commentswrite comment
1 2 3 4 5
2 more votes to show rating
add to favorites
launch autoscroll
font size
0
reset
how to read this tab
guitar tuner
×
Best way to learn
"In The Summertime"
Autoscroll
slow
fast
+/-
esc
set tempo
stop
In the Summertime by Mungo Jerry - Cover by the Moon Loungers

Video here - http://www.youtube.com/watch?v=pSYaj-2MBMM


CHORDS

      EADGBE
     --------
E     0x2100
A     x0222x
Asus2 x02200
B7    x2120x



INTRO

             E
|-----------|-0-----0--0-------|-------------------|-0-----0--0-------|
|------0h2--|-------------2p0--|-2p0----------0h2--|-------------2p0--|
|-----------|------------------|------0h1----------|------------------|
|-----------|----2-------------|-----------2-------|----2-------------|
|-----------|------------------|-------------------|------------------|
|-----------|-0--------0-------|-0---------0-------|-0--------0-------|


                      A
|--------------------|-------------------------|------------------------|
|-2p0----------------|-------2--------2--------|-2--------2--------0h2--|
|------0h1--------1--|----2--------2--------2--|-------2--------2-------|
|-----------2--2-----|-2--------2--------2-----|----2--------2----------|
|--------------------|-------------------------|------------------------|
|-0---------0--------|-------------------------|------------------------|


 E                                       B7                    Asus2
|-0-----0--0-------|--------------------|---------------------|---------------------|
|-------------2p0--|-2p0----------------|-0-------2--0--------|-0--------0-----0h2--|
|------------------|------0h1-----1-----|----2----------2-----|----2--------2-------|
|----2-------------|-----------2-----2--|-------1----------1--|-------2-------------|
|------------------|--------------------|-2-------------------|-0-------------------|
|-0--------0-------|-0---------0--------|---------------------|---------------------|


 E
|-0-----0--0-------|
|-------------2p0--|
|------------------|
|----2-------------|
|------------------|
|-0--------0-------|


                                 
VERSE 1

 E
|-------------------|-0-----0--0---------|----------------------|-0------------0--0-------|
|-2p0----------0h2--|---------------2p0--|-2p0------------0h2---|--------------------2p0--|
|------0h1----------|--------------------|------0h1-------------|-------------------------|
|-----------2-------|----2---------------|-----------2----------|-----------2-------------|
|-------------------|--------------------|----------------------|-------------------------|
|-0---------0-------|-0--------0---------|-0---------0----------|-0---------------0-------|
              In the Summer time when the weather is hot You can stretch right up    and

 
                        A
|----------------------|--------------------------|-------------------------|
|-2p0------------------|-------2---------2--------|-2--------2---------0h2--|
|------0h1----------1--|----2---------2--------2--|-------2--------2--------|
|-----------2----2-----|-2---------2--------2-----|----2--------2-----------|
|----------------------|--------------------------|-------------------------|
|-0---------0----------|--------------------------|-------------------------|
 touch the sky When the weather's fine    you got women you got women on your


 E                                       B7                      Asus2
|-0-----0--0-------|--------------------|-----------------------|----------------------------|
|-------------2p0--|-2p0----------------|-0-------2----0--------|-0----------0--------0-h-2--|
|------------------|------0h1-----1-----|----2------------2-----|-----2----------2-----------|
|----2-------------|-----------2-----2--|-------1------------1--|--------2-------------------|
|------------------|--------------------|-2---------------------|-0--------------------------|
|-0--------0-------|-0---------0--------|-----------------------|----------------------------|
mind                            Have a drink have a drive        go out and see what you can


 E                                      
|-0-----0--0-------|
|-------------2p0--|
|------------------|
|----2-------------|
|------------------|
|-0--------0-------|
 find



VERSE 2

 E
|--------------------|-0-----0--0----------|--------------------------|-0------0--0-------|
|-2p0----------0h2---|---------------2-p-0-|-2-p-0--------------0h2---|--------------2p0--|
|------0h1-----------|---------------------|--------0h1---------------|-------------------|
|-----------2--------|----2----------------|---------------2----------|-----2-------------|
|--------------------|---------------------|--------------------------|-------------------|
|-0---------0--------|-0--------0----------|-0-------------0----------|-0---------0-------|
              If her daddy's rich   take her out for a meal    If her daddy's poor  just 

 
                          A
|------------------------|--------------------------|-------------------------|
|-2p0--------------------|-------2---------2--------|-2--------2---------0h2--|
|------0h1------------1--|----2---------2--------2--|-------2--------2--------|
|-----------2------2-----|-2---------2--------2-----|----2--------2-----------|
|------------------------|--------------------------|-------------------------|
|-0---------0------------|--------------------------|-------------------------|
 do what you feel Speed along the lane,      do a    ton    or a ton an' twenty


 E                                        B7                      Asus2
|-0-----0--0-------|---------------------|-----------------------|------------------------------|
|-------------2p0--|-2p0-----------------|-0-------2----0--------|-0-----------0----------0-h-2-|
|------------------|------0h1-----1------|----2------------2-----|-----2---------------2--------|
|----2-------------|-----------2------2--|-------1------------1--|---------2--------------------|
|------------------|---------------------|-2---------------------|-0----------------------------|
|-0--------0-------|-0---------0---------|-----------------------|------------------------------|
five                             When the sun goes down  you can make it, make it good in a lay-


 E                                      
|-0-----0--0-------|
|-------------2p0--|
|------------------|
|----2-------------|
|------------------|
|-0--------0-------|
-by



VERSE 3

 E
|---------------------|-0--------0---0----------|-----------------------------|-0------0--0-------|
|-2p0----------0-h-2--|-------------------2-p-0-|--2-p-0---------------0-h-2--|--------------2p0--|
|------0h1------------|-------------------------|----------0-h-1--------------|-------------------|
|-----------2---------|-------2-----------------|------------------2----------|-----2-------------|
|---------------------|-------------------------|-----------------------------|-------------------|
|-0---------0---------|-0------------0----------|--0---------------0----------|-0---------0-------|
              We're no threat people    we're not dirty we're not mean We love every - body  but we 

 
                          A
|------------------------|--------------------------|-----------------------------|
|-2p0--------------------|-------2---------2--------|-2--------2-----------0-h-2--|
|------0h1------------1--|----2---------2--------2--|-------2---------2-----------|
|-----------2------2-----|-2---------2--------2-----|----2--------2---------------|
|------------------------|--------------------------|-----------------------------|
|-0---------0------------|--------------------------|-----------------------------|
 do as we please When the weather's fine      we go fishin' or go swimmin' in the 


 E                                           B7                      Asus2
|-0-----0--0------|------------------------|----------------------|------------------------------|
|-------------2p0-|-2p0--------------------|-0-------2----0-------|-0-----------0----------0-h-2-|
|-----------------|------0h1---------1-----|----2------------2----|-----2---------------2--------|
|----2------------|-----------2---------2--|-------1------------1-|---------2--------------------|
|-----------------|------------------------|-2--------------------|-0----------------------------|
|-0--------0------|-0---------0------------|----------------------|------------------------------|
sea                             We're always happy      life's for livin' yeah that's our philoso-


 E                                      
|-0-----0--0-------|
|-------------2p0--|
|------------------|
|----2-------------|
|------------------|
|-0--------0-------|
-phy



VERSE 4

 E
|-------------------|-0--------0---0----------|-----------------------------|-0------0--0---------|
|-2p0----------0h2--|-------------------2-p-0-|--2-p-0---------------0-h-2--|--------------2-p-0--|
|------0h1----------|-------------------------|----------0-h-1--------------|---------------------|
|-----------2-------|-------2-----------------|------------------2----------|-----2---------------|
|-------------------|-------------------------|-----------------------------|---------------------|
|-0---------0-------|-0------------0----------|--0---------------0----------|-0---------0---------|
              Sing along with us       dee dee dee-dee    dee       Dah dah  dah-dah dah yeah we're  

 
                          A
|------------------------|-------------------------|------------------------------|
|-2p0--------------------|-------2--------2--------|-2---------2-----------0-h-2--|
|------0h1------------1--|----2--------2--------2--|-------2----------2-----------|
|-----------2------2-----|-2--------2--------2-----|----2---------2---------------|
|------------------------|-------------------------|------------------------------|
|-0---------0------------|-------------------------|------------------------------|
 hap-happy                Dah       dah-dah         dee-dah-do dee-dah-do  dah-do-


 E                                           B7                      Asus2
|-0-----0--0-------|------------------------|-----------------------|---------------------------|
|-------------2p0--|-2p0--------------------|-0-------2----0--------|-0-----------0-------0-h-2-|
|------------------|------0h1---------1-----|----2------------2-----|-----2------------2--------|
|----2-------------|-----------2---------2--|-------1------------1--|---------2-----------------|
|------------------|------------------------|-2---------------------|-0-------------------------|
|-0--------0-------|-0---------0------------|-----------------------|---------------------------|
 dah                                 Dah-do  dah-dah-dah             dah-dah     dah  do-dah-


 E                                      
|-0-----0--0-------|-------------------|
|-------------2p0--|-2p0----------0h2--|
|------------------|------0h1----------|
|----2-------------|-----------2-------|
|------------------|-------------------|
|-0--------0-------|-0---------0-------|
 dah
 
  

INSTRUMENTAL VERSE

 E     
|-0-----0--0-------|-------------------|-0-----0--0-------|
|-------------2p0--|-2p0----------0h2--|-------------2p0--|
|------------------|------0h1----------|------------------|
|----2-------------|-----------2-------|----2-------------|
|------------------|-------------------|------------------|
|-0--------0-------|-0---------0-------|-0--------0-------|


                      A
|--------------------|-------------------------|------------------------|
|-2p0----------------|-------2--------2--------|-2--------2--------0h2--|
|------0h1--------1--|----2--------2--------2--|-------2--------2-------|
|-----------2--2-----|-2--------2--------2-----|----2--------2----------|
|--------------------|-------------------------|------------------------|
|-0---------0--------|-------------------------|------------------------|


 E                                       B7                    Asus2
|-0-----0--0-------|--------------------|---------------------|---------------------|
|-------------2p0--|-2p0----------------|-0-------2--0--------|-0--------0-----0h2--|
|------------------|------0h1-----1-----|----2----------2-----|----2--------2-------|
|----2-------------|-----------2-----2--|-------1----------1--|-------2-------------|
|------------------|--------------------|-2-------------------|-0-------------------|
|-0--------0-------|-0---------0--------|---------------------|---------------------|


 E
|-0-----0--0-------|
|-------------2p0--|
|------------------|
|----2-------------|
|------------------|
|-0--------0-------|



VERSE 5

 E
|---------------------|-0--------0---0-----------|------------------------|
|-2p0----------0-h-2--|-------------------2-p-0--|--2p0------------0-h-2--|
|------0h1------------|--------------------------|--------0h1-------------|
|-----------2---------|-------2------------------|-------------2----------|
|---------------------|--------------------------|------------------------|
|-0---------0---------|-0------------0-----------|--0----------0----------|
              When the winter's here     yeah it's party time   Bring your 
 

                                                                    A                          
|-0---------0------0------------------|----------------------------|--------------------------|
|------------------------------2-p-0--|-2-p-0----------------------|-------2---------2--------|
|-------------------------------------|--------0-h-1------------1--|----2---------2--------2--|
|--------2----------------------------|---------------2------2-----|-2---------2--------2-----|
|-------------------------------------|----------------------------|--------------------------|
|-0----------------0------------------|-0-------------0------------|--------------------------|
 bottle wear your bright clothes it'll soon be summertime  And we'll sing again       we'll go


                              E                                      B7
|----------------------------|-0-----0--0------|--------------------|----------------------------|
|-2--------2-----------0-h-2-|-------------2p0-|-2p0----------------|-0--------2----0------------|
|-------2---------2----------|-----------------|------0h1-----1-----|----2----------------2------|
|----2--------2--------------|----2------------|-----------2-----2--|-------1-----------------1--|
|----------------------------|-----------------|--------------------|-2--------------------------|
|----------------------------|-0--------0------|-0---------0--------|----------------------------|
drivin' or maybe we'll settle down                          If she's rich if she's nice bring your 


 Asus2                             E
|---------------------------------|-0--0-----------|--0-------------|
|--0-----------0------------0-h-2-|-0-----2--0--2--|----------------|
|------2-----------------2--------|-1--------------|----------------|
|----------2----------------------|----------------|----------------|
|--0------------------------------|----------------|----------------|
|---------------------------------|-0--------------|------------0---|
 friends  and we'll all go  into   town                           



Suggest correction
Give kudos to tab author, rate the tab!
1 2 3 4 5
comments
print report bad tab
guest
You may want to rate the tab now too:
select rating
Wanna post a correction for this tab? Suggest correction