Oops, an error
Loading. Please wait.

Miss Atomic Bomb Tab

974 views 1 this week
no commentswrite comment
1 2 3 4 5
3 more votes to show rating
add to favorites
launch autoscroll
font size
0
reset
how to read this tab
guitar tuner
Autoscroll
slow
fast
+/-
esc
set tempo
stop
Author
Difficulty
intermediate
Miss Atomic Bomb by The Killers - Acoustic Cover by the Moon Loungers

Video here - https://www.youtube.com/watch?v=Y9nPLPoDLt4


CHORDS - capo second fret

         EADGBE
        --------
G        320033
Bm7      x20230
Cadd9    x32033
D        xx0232
G/B      x20033
Dsus4    xx0233
Em7      022033
Dsus2    xx0230
Dsus4/F# 200233
C        x32010

INTRO

|-----------5p3--|-----------5p3--|-----------5p3--|-----------5p3--|
|---0------------|---0------------|---0------------|---0------------|
|-----4---4------|-----4---4------|-----4---4------|-----4---4------|
|-5-----5--------|-4-----4--------|-2-----2--------|-0-----0--------|
|----------------|----------------|----------------|----------------|
|----------------|----------------|----------------|----------------|


|-----------5p3--|-----------5p3--|-----------5p3--|-------5--------|
|---0------------|---0------------|---0------------|-----3----------|
|-----4---4------|-----4---4------|-----4---4------|---2------------|
|----------------|----------------|----------------|-0--------------|
|-3-----3--------|-2-----2--------|-0-----0--------|----------------|
|----------------|----------------|----------------|----------------|

VERSE 1

 G                                                    Bm7
|-3-------------------------|------------------------|---------------|-0-------------|
|---------------3-----------|-------------3----------|---------3-----|---------3-----|
|---------0---------0-------|----------0------0------|------2----2---|------2----2---|
|-----0-------------------0-|------0--------------0--|----0--------0-|----0--------0-|
|---------------------------|------------------------|-2-------------|-2-------------|
|-3-------------------------|--3---------------------|---------------|---------------|
   You were standing with your girlfriends in the street


 Cadd9                 G               D                      Cadd9  G/B   Dsus4   D
|-3-------------------|---------------|----------------2-----|-3------3---|-3------2-------|
|-----------3---------|---------3-----|-----------3------3---|-3------3---|-3------3--3----|
|--------0------0-----|------0----0---|------2-------------2-|-0------0---|-0------2-----2-|
|-----2-------------2-|----0--------0-|-0--------------------|------------|-2------0-------|
|-3-------------------|---------------|----------------------|-3------2---|----------------|
|---------------------|-3-------------|----------------------|------------|----------------|
   Falling back on forever          I wonder what you came to be

VERSE 2

 G                                                    Bm7
|-3-------------------------|-----------------------|---------------|-0-------------|
|---------------3-----------|------------3----------|---------3-----|---------3-----|
|---------0---------0-------|---------0------0------|------2----2---|------2----2---|
|-----0-------------------0-|-----0--------------0--|----0--------0-|----0--------0-|
|---------------------------|-----------------------|-2-------------|-2-------------|
|-3-------------------------|-3---------------------|---------------|---------------|
      I was new in town the  boy with the eager eye


 Cadd9                 G               D                      Cadd9  G/B   Dsus4   D
|-3-------------------|---------------|----------------2-----|-3------3---|-3------2----|
|-----------3---------|---------3-----|-----------3------3---|-3------3---|-3------3----|
|--------0------0-----|------0----0---|------2-------------2-|-0------0---|-0------2----|
|-----2-------------2-|----0--------0-|-0--------------------|------------|-2------0----|
|-3-------------------|---------------|----------------------|-3------2---|-------------|
|---------------------|-3-------------|----------------------|------------|-------------|
   I never was  a  quitter         oblivious to school girls  lies

BRIDGE

 C                  Dsus2                                 C
|-3---------------|------------0---------|-5-------------|-0-------------|
|------------3----|-3-----3-------3------|---------0-----|---------1-----|
|-------0-------0-|----2--------------2--|------0----0---|------0----0---|
|----2------------|-0--------------------|----2--------2-|----2--------2-|
|-3---------------|----------------------|---------------|-3-------------|
|-----------------|----------------------|-0-------------|---------------|
   When I look back   on those neon nights                       the leather


|-3-------------------|-5-------5--------|-7----------7---------|
|------------0--------|------3-----3-----|--------8--------8----|
|---------0-------0---|----2----------2--|-----9--------------9-|
|-----2-------------2-|-0----------------|----------------------|
|---------------------|------------------|----------------------|
|-0-------------------|------------------|-0--------------------|
seat the passage right         I feel the heat I see the light

CHORUS

                  G                                                G/B
|-8--------8-----|-3-------------|--------------------------------|-3------------|
|-------7-----7--|------0----3---|-----------3--------------------|-----0----3---|
|---7------------|----0----0---0-|--------0----------0----------0-|---0----0---0-|
|-0--------------|---------------|----0---------------------0-----|--------------|
|----------------|---------------|--------------------------------|-2------------|
|----------------|-3-------------|-3------------------------------|--------------|
  Miss Atomic Bomb                  we're making out we've got the radio on


                       C                   Em                C
|---------------------|-0-----------------|-----------------|--------------------|
|-------3-------------|--------1------0---|-------0---------|-1------0-----------|
|-----0----0--------0-|----0--------0---0-|-----0----0---0--|----------------0---|
|---0-----------0-----|-------------------|---2--------2----|-----2--------2---2-|
|-2-------------------|-3-----------------|-----------------|-3------------------|
|---------------------|-------------------|-0---------------|--------------------|
         you're gonna miss me when I'm gone       your gonna miss me  when I'm


 Em       D        G                                            G/B
|---------2p0-----|-3---------------------|--------------------|--3------------------|
|---0---------3---|----------0---------3--|-------3------------|----------0------3---|
|-----0---------2-|-------0---------0----0|-----0----0-------0-|-------0-------0---0-|
|-------2-0-------|-----------------------|---0---------0------|---------------------|
|-----------------|-----------------------|--------------------|--2------------------|
|-0---------------|-3---------------------|-3------------------|---------------------|
goo - one   racing shadows under moon light         through the desert on a hot night


                   C                     Em                   C
|-----------------|-0-------------------|--------------------|---------------|
|-------3---------|----------1------0---|-------0------------|-1----0--------|
|-----0----0----0-|------0--------0---0-|-----0----0------0--|-----------0---|
|---0--------0----|---------------------|---2---------2------|----2----2---2-|
|-2---------------|-3-------------------|--------------------|-3-------------|
|-----------------|---------------------|-0------------------|---------------|
         and for a second there we'd won         yeah we were inocent and


 Em       D        G
|---------2p0-----|-3-------------|----------------|
|---0---------3---|-----------3---|-------3--------|
|-----0---------2-|------0------0-|-----0----0---0-|
|-------2-0-------|----0----0-----|---0--------0---|
|-----------------|---------------|----------------|
|-0---------------|-3-------------|-3--------------|
 you  -  ung

LINK

 G                                G/B
|-3-------------|----------------|-3-------------|----------------|
|------0----3---|-------3--------|------0----3---|-------3--------|
|----0----0---0-|-----0----0---0-|----0----0---0-|-----0----0---0-|
|---------------|---0--------0---|---------------|---0--------0---|
|---------------|----------------|-2-------------|-2--------------|
|-3-------------|-3--------------|---------------|----------------|


 C               Em               C               Em       D
|-0-------------|----------------|---------------|---------2p0-----|
|------1----0---|-------0--------|-1----0--------|---0---------3---|
|----0----0---0-|-----0----0---0-|-----------0---|-----0---------2-|
|---------------|---2--------2---|----2----2---2-|-------2-0-------|
|-3-------------|----------------|-3-------------|-----------------|
|---------------|-0--------------|---------------|-0---------------|


 G                                G/B
|-3-------------|----------------|-3-------------|----------------|
|------0----3---|-------3--------|------0----3---|-------3--------|
|----0----0---0-|-----0----0---0-|----0----0---0-|-----0----0---0-|
|---------------|---0--------0---|---------------|---0--------0---|
|---------------|----------------|-2-------------|-2--------------|
|-3-------------|-3--------------|---------------|----------------|


 C               Em               C               Em       D
|-0-------------|----------------|---------------|---------2p0-----|-3-----|
|------1----0---|-------0--------|-1----0--------|---0---------3---|-------|
|----0----0---0-|-----0----0---0-|-----------0---|-----0---------2-|-------|
|---------------|---2--------2---|----2----2---2-|-------2-0-------|-------|
|-3-------------|----------------|-3-------------|-----------------|-------|
|---------------|-0--------------|---------------|-0---------------|-3-----|

VERSE 3

 G                                                     Bm7
|-3----------------------|----------------------------|---------------|-0----------------|
|------------3-----------|------------------3---------|---------3-----|---------3--------|
|--------0-------0-------|---------0------------0-----|------2----2---|------2-----2-----|
|-----0----------------0-|-----0-------------------0--|----0--------0-|----0-----------0-|
|------------------------|----------------------------|-2-------------|-2----------------|
|-3----------------------|-3--------------------------|---------------|------------------|
Cast out   of   the night        well you've got   a   foolish heart           so you took


 Cadd9                   G                       D                Cadd9
|-3---------------------|-----------------------|----------2-----|-3------3------|
|-------------3---------|------------3----------|-------3----3---|----3------3---|
|--------0--------0-----|------0----------0-----|----2---------2-|------0------0-|
|-----2---------------2-|----0----------------0-|-0--------------|---------------|
|-3---------------------|-----------------------|----------------|-3------2------|
|-----------------------|-3---------------------|----------------|---------------|
  your place but the fall from grace was the hardest    part                  It

VERSE 4

 G
|-------------------------------|----------------------------|
|-------------------3-----------|-----------------3----------|
|-------------0--------0------0-|----------0--------0------0-|
|-------0------------------0----|------0----------------0----|
|-------------------------------|----------------------------|
|-3--------------3--------------|-3------------3-------------|
 feels just like a dagger buried deep in your back You run for


 Bm7
|--------------------------------|------------------------------|
|-----------------3--------------|---------------3--------------|
|---------2-----------2-------2--|--------2----------2-------2--|
|-----0-------------------0------|-----0-----------------0------|
|-2-----------2------------------|-2---------2------------------|
|--------------------------------|------------------------------|
 cover   but you can't escape the second attack    Your soul was


 Cadd9                              G
|----------------------------------|----------------------------|
|-------------3--------------------|--------------3-------------|
|---------0-------------0-------0--|--------0--------0--------0-|
|-----2---------------------2------|----0----------------0------|
|-3--------------------------------|----------------------------|
|----------------------------------|-3---------3----------------|
innocent    she kissed him and she painted it black You should’ve


 D                                Cadd9
|------------------2-------------|-3-------------------------|
|----------3-----------3-------3-|----3---------------3------|
|------2-------------------2-----|--------0-------------0----|
|--0-----------0-----------------|------------0-----------0--|
|--------------------------------|-3---------------2---------|
|--------------------------------|---------------------------|
 seen your little face            burnin’ for love, holding


 Em7          D
|-------------2-----------|
|----3-----------3-----3--|
|-------0-----------2-----|
|----------2--0-----------|
|-------------------------|
|-0-----------------------|
 on for your life

BRIDGE 2

 Cadd9                      Dsus2
|---3--------------3-------|------------0---------|-5----------------------|
|---------------------3----|-3-----3-------3------|------------------0-----|
|---------------0--------0-|----2--------------2--|---------------0----0---|
|-----------2--------------|-0--------------------|----------2-----------2-|
|---3----------------------|----------------------|------------------------|
|--------------------------|----------------------|-0----------------------|
And all that I wanted was a little touch A little tenderness and truth, I


 C                           Em7
|-0------------------------|-3---------------------|-5--------------5--------|-7----------7---------|
|--------------------1-----|--------------0--------|-----------3-------3-----|-8------8--------8----|
|--------------0-------0---|-----------0-------0---|------2---------------2--|-9---9--------------9-|
|-------2----------------2-|-------2-------------2-|-0-----------------------|----------------------|
|-3------------------------|-----------------------|-------------------------|----------------------|
|--------------------------|-0---------------------|-------------------------|-0--------------------|
 didn’t ask for much, no    Talk about being at the wrong place at the wrong  time

CHORUS 2

                  G                                                G/B
|-8--------8-----|-3-------------|--------------------------------|-3------------|
|-7-----7-----7--|------0----3---|-----------3--------------------|-----0----3---|
|-7-7------------|----0----0---0-|--------0----------0----------0-|---0----0---0-|
|-0--------------|---------------|----0---------------------0-----|--------------|
|----------------|---------------|--------------------------------|-2------------|
|----------------|-3-------------|-3------------------------------|--------------|
  Miss Atomic Bomb                  we're making out we've got the radio on


                       C                   Em                C
|---------------------|-0-----------------|-----------------|--------------------|
|-------3-------------|--------1------0---|-------0---------|-1------0-----------|
|-----0----0--------0-|----0--------0---0-|-----0----0---0--|----------------0---|
|---0-----------0-----|-------------------|---2--------2----|-----2--------2---2-|
|-2-------------------|-3-----------------|-----------------|-3------------------|
|---------------------|-------------------|-0---------------|--------------------|
         you're gonna miss me when I'm gone       your gonna miss me  when I'm


 Em       D        G
|---------2p0-----|-3---------------------|--------------------|--3------------------|
|---0---------3---|----------0---------3--|-------3------------|----------0------3---|
|-----0---------2-|-------0---------0----0|-----0----0-------0-|-------0-------0---0-|
|-------2-0-------|-----------------------|---0---------0------|---------------------|
|-----------------|-----------------------|--------------------|--2------------------|
|-0---------------|-3---------------------|-3------------------|---------------------|
goo - one   racing shadows under moon light         through the desert on a hot night


 G/B               C                     Em                   C
|-----------------|-0-------------------|--------------------|---------------|
|-------3---------|----------1------0---|-------0------------|-1----0--------|
|-----0----0----0-|------0--------0---0-|-----0----0------0--|-----------0---|
|---0--------0----|---------------------|---2---------2------|----2----2---2-|
|-2---------------|-3-------------------|--------------------|-3-------------|
|-----------------|---------------------|-0------------------|---------------|
         and for a second there we'd won         yeah we were inocent and


 Em       D
|---------2p0-----|
|---0---------3---|
|-----0---------2-|
|-------2-0-------|
|-----------------|
|-0---------------|
 you  -  ung

MIDDLE 8

|-----------5p3--|-----------------5p3--|-------------5p3--|---------------5p3--|
|---0------------|---0------------------|-----0------------|---0----------------|
|-----4---4------|-----4-----4----------|-------4---4------|-----4-----4--------|
|-5-----5--------|-4-----4--------------|---2-----2--------|-0-----0------------|
|----------------|----------------------|------------------|--------------------|
|----------------|----------------------|------------------|--------------------|
                        The dust cloud has settled,              and my eyes are


|-------------5p3--|----------------5p3---|-------------5p3--|--------------5p3--|
|-----0------------|---0------------------|-----0------------|---0---------------|
|-------4---4------|-----4-----4----------|-------4---4------|-----4-----4-------|
|---2-----2--------|-0-----0--------------|---2-----2--------|-0-----0-----------|
|------------------|----------------------|------------------|-------------------|
|------------------|----------------------|------------------|-------------------|
 clear                    But sometimes in dreams of impact   I    still  hear


|--------------5p3--|
|---0---------------|
|-----4-----4-------|
|-2-----2-----------|
|-------------------|
|-------------------|

CHORUS 3

                     G                                      G/B
|--------------5p3--|-3-------------|----------------------|-3------------|
|---0---------------|------0----3---|-----------3----------|-----0----3---|
|-----4-----4-------|----0----0---0-|--------0-----0-----0-|---0----0---0-|
|-2-----2-----------|---------------|----0------------0----|--------------|
|-------------------|---------------|----------------------|-2------------|
|-------------------|-3-------------|-3--------------------|--------------|
        Miss Atomic Bomb          I'm standing here                  sweat


                       C                   Em                   C
|---------------------|-0-----------------|--------------------|--------------------|
|-------3-------------|--------1------0---|----------0---------|-1------0-----------|
|-----0----0--------0-|----0--------0---0-|-------0-----0---0--|----------------0---|
|---0-----------0-----|-------------------|----2----------2----|-----2--------2---2-|
|-2-------------------|-3-----------------|--------------------|-3------------------|
|---------------------|-------------------|-0------------------|--------------------|
 on my skin                       and this love that I’ve cradled                is


 Em       D        G
|---------2p0-----|-3---------------------|--------------------|--3------------------|
|---0---------3---|----------0---------3--|-------3------------|----------0------3---|
|-----0---------2-|-------0---------0----0|-----0----0-------0-|-------0-------0---0-|
|-------2-0-------|-----------------------|---0---------0------|---------------------|
|-----------------|-----------------------|--------------------|--2------------------|
|-0---------------|-3---------------------|-3------------------|---------------------|
wearing thin                        But I'm standing here                   and you’re
     (Miss Atomic Bomb)


 G/B               C                     Em                   C
|-----------------|-0-------------------|--------------------|---------------|
|-------3---------|----------1------0---|-------0------------|-1----0--------|
|-----0----0----0-|------0--------0---0-|-----0----0------0--|-----------0---|
|---0--------0----|---------------------|---2---------2------|----2----2---2-|
|-2---------------|-3-------------------|--------------------|-3-------------|
|-----------------|---------------------|-0------------------|---------------|
   too late                         Your shockwave whisper
                                                             (shockwave whisper)

 Em       D
|---------2p0-----|
|---0---------3---|
|-----0---------2-|
|-------2-0-------|
|-----------------|
|-0---------------|
has sealed your fate

CHORUS 4

 G
|---------------------------------|-----------------------------|
|----------------------3----------|------------------3----------|
|--------------0----------0-----0-|-----------0---------0-----0-|
|---------0------------------0----|-------0----------------0----|
|---------------------------------|-----------------------------|
|----3--------------3-------------|---3-----------3-------------|
                                     It's a cruel world
(It feels just like a dagger buried deep in your back you run for)


 G/B
|-----------------------------|----------------------------|
|---------------3-------------|---------------3------------|
|-------0------------0------0-|---------0--------0-------0-|
|----0------------------0-----|------0---------------0-----|
|-2----------2----------------|---2--------2---------------|
|-----------------------------|----------------------------|
                      And you turned your back
(cover but you can’t escape the second attack  Your soul is)


 C                               Em7
|---------------3---------------|-----------------------------|
|---------------------1---------|-----------------2--------0--|
|-------0-----------------0-----|--------0-----------0--------|
|----2------------------------2-|-----2-----------------0-----|
|-3--------3--------------------|-----------------------------|
|-------------------------------|--0---------0----------------|
                            On a losing streak
(innocent she kissed him and she painted it black  You should’ve)


 C                               Em7
|---------------------------------|-----------2p0-----|
|-------------------1-------------|---0-----------3---|
|-----------0-----------0-------0-|------0----------2-|
|------2--------------------2-----|---------2-0-------|
|-3------------3------------------|-------------------|
|---------------------------------|-0-----------------|
                                    Miss Atomic Bomb
 (seen your little face          burnin’ for love)

CHORUS 5

 G
|------------------------------------|------------------------|
|-------------------------3----------|--------------3---------|
|-----------------0----------0-----0-|--------0-------0-----0-|
|------------0------------------0----|-----0-------------0----|
|------------------------------------|------------------------|
|-------3--------------3-------------|-3---------3------------|
                                     BUt you can't survive
(Holding on for your life             all that I wanted was a)


 G/B
|---------------------------|----------------------------|
|-------------3-------------|---------------3------------|
|-------0----------0------0-|---------0--------0-------0-|
|----0----------------0-----|------0---------------0-----|
|-2--------2----------------|---2--------2---------------|
|---------------------------|----------------------------|
                      When you want it all
(little  touch    A little   tenderness and truth     I)


 C                               Em7
|---------------3---------------|---------------------------|
|---------------------1---------|---------------3-----------|
|-------0-----------------0-----|--------0---------0-----0--|
|----2------------------------2-|-----2---------------0-----|
|-3--------3--------------------|---------------------------|
|-------------------------------|--0--------0---------------|
                            There's another side
(didn’t ask for much             Talk about   being at the  )


 C                               Em7
|------------------------------|------------2p0-----|
|----------------1-------------|----0-----------3---|
|---------0----------0-------0-|-------0----------2-|
|------2-----------------2-----|----------2-0-------|
|-3----------3-----------------|--------------------|
|------------------------------|-0------------------|
                                    Miss Atomic Bomb
 (wrong place   at the wrong    time)

OUTRO

 G                                      G/B
|----------------|--------------------|--------------------|----------------------|
|-------3--------|----------3---------|----------3---------|-----------3----------|
|-----0----0-----|-------0----0-----0-|-------0------0-----|-------0------0-----0-|
|---0---------0--|----0----------0----|----0------------0--|----0------------0----|
|----------------|--------------------|-2------------------|-2--------------------|
|-3--------------|-3------------------|--------------------|----------------------|
        Are we human                           or are we dancer
(Jealousy,          turning saints in - to the sea,         swimming through sick)


 Cadd9               Em7                     Cadd9               Em7
|-------------------|-----------------------|-------------------|------------2p0-----|
|----------3--------|-----------3-----------|----------3--------|----3-----------3---|
|-------0------0----|--------0-----0-----0--|-------0------0----|-------0----------2-|
|----2------------2-|-----2-----------0-----|----2------------2-|----------2-0-------|
|-3-----------------|-----------------------|-3-----------------|--------------------|
|-------------------|--0--------------------|-------------------|-0------------------|
        my sign is vital                         my hands are cold
(lullabies             Choking  on  your     alibis              but it’s   just the)


 G                                      G/B
|----------------|--------------------|--------------------|----------------------|
|-------3--------|----------3---------|----------3---------|-----------3----------|
|-----0----0-----|-------0----0-----0-|-------0------0-----|-------0------0-----0-|
|---0---------0--|----0----------0----|----0------------0--|----0------------0----|
|----------------|--------------------|-2------------------|-2--------------------|
|-3--------------|-3------------------|--------------------|----------------------|
 And I'm my knees   looking for the answer                            are we
(price  I  pay     Destiny      is     calling me,          open     up     my)


 C                               Em7         C                    Em7        D         G
|-------------------|-----------------------|-------------------|------------2p0-----|--3--|
|----------3--------|-----------3-----------|----------3--------|----3-----------3---|--3--|
|-------0------0----|--------0-----0-----0--|-------0------0----|-------0----------2-|--0--|
|----2------------2-|-----2-----------0-----|----2------------2-|----------2-0-------|-----|
|-3-----------------|-----------------------|-3-----------------|--------------------|-----|
|-------------------|--0--------------------|-------------------|-0------------------|--3--|
  human                or are we dancer?
 (eager           eyes                       ‘cos   I'm    Mr      Bright - side)
Suggest correction
Give kudos to tab author, rate the tab!
1 2 3 4 5
comments
print report bad tab
guest
You may want to rate the tab now too:
select rating
Wanna post a correction for this tab? Suggest correction