Oops, an error
Loading. Please wait.

One Day Like This Tab

299 views 3 this week
no commentswrite comment
1 2 3 4 5
2 more votes to show rating
add to favorites
launch autoscroll
font size
0
reset
how to read this tab
guitar tuner
Autoscroll
slow
fast
+/-
esc
set tempo
stop
Author
Difficulty
intermediate
One Day Like This by Elbow - Acoustic Cover by the Moon Loungers

YouTube Video - https://www.youtube.com/watch?v=xqGXJXMFADA

CHORDS


    E          A/E          B/E         Dsus2        Asus2
  _x___x      _x___x       _x___x       xx____       x_____
  ||||||      ||||||       ||||||       ||||||       ||||||
9 ||♦♦♦|    9 |||♦||    11 |||♦||       |||♦||       ||♦♦||
  ||||||      ||||♦|       ||||♦|       ||||♦|       ||||||
  ||||||      ||♦|||       ||♦|||       ||||||       ||||||
  ||||||      ||||||       ||||||       ||||||       ||||||




INTRO

|----12--11------9-----------|----------------------------|----12--11------9-----------|
|------------12-----9---9/12-|----------------------------|------------12-----9---9/12-|
|-9--------------------------|----------------------------|-9--------------------------|
|----------------------------|----------------------------|----------------------------|
|----------------------------|----------------------------|----------------------------|
|----------------------------|-0--0--12---12---0--0---12--|----------------------------|


|----------------------------|----12--11-----9-----------|--------------------|
|----------------------------|-----------12-----9---9/12-|--9h10--9--9h10--9--|
|----------------------------|-9-------------------------|--------------------|
|----------------------------|---------------------------|--------------------|
|----------------------------|---------------------------|--------------------|
|-0--0--12---12---0--0---12--|---------------------------|--------------------|


|----12--11-----9-----------|---------------|
|-----------12-----9h10--9--|--9h10--9------|
|-9-------------------------|-----------11--|
|---------------------------|---------------|
|---------------------------|---------------|
|---------------------------|---------------|



VERSE 1

 E                                                     A/E
|----------------------------|------------------------|-------------------------------|
|--------9-------------9-----|-------9h10--9-----9----|----------10-------------10----|
|------------9-------------9-|----------------------9-|--------------9--------------9-|
|-----9-----------9----------|----9-----------9-------|------11------------11---------|
|----------------------------|------------------------|-------------------------------|
|-0--------------------------|-0----------------------|-0-----------------------------|
Drinking in the morning sun                             blinking in the morning sun


                           B/E
|-------------------------|---------------------------|--------------------------|
|--------10---------10----|-------12------------12----|------12------------12----|
|------------9----------9-|-----------11-----------11-|----------11-----------11-|
|----11---------11--------|----13-----------13--------|----------------13--------|
|-------------------------|---------------------------|--------------------------|
|-0-----------------------|-0-------------0-----------|-0--0---------0-----------|
                          Shaking off the heavy one


 A/E
|--------------------------|-----------------------------|
|----------10--------10----|--------10h12p10--------10---|
|--------------9---------9-|---------------------------9-|
|------11------------------|----11---------------11------|
|--------------------------|-----------------------------|
|--0--------------0--------|-0----------------0----------|
 heavy like a loaded gun



VERSE 2

 E                                                         A/E
|------------------------------|--------------------------|-------------------------------|
|---------9---------------9----|------9h10-9--12--10--9---|----------10-------------10----|
|-------------9--------------9-|------------------------9-|--------------9--------------9-|
|-----9--------------9---------|---9----------------------|------11------------11---------|
|------------------------------|--------------------------|-------------------------------|
|-0--------------0-------------|-0------------------------|-0---------------0-------------|
 What made me behave that way?                              Using words   I   never  say


                    B/E      A/E                                             B/E
|---------------------------|------------------------------|---------------------------|
|--------10-----------12----|----------10------------10----|--------10----------12-----|
|------------9-----------11-|--------------9-------------9-|------------9-----------11-|
|----11------------13-------|------11------------11--------|----11-----------13--------|
|---------------------------|------------------------------|---------------------------|
|-0-------------0-----------|--0--------------0------------|-0-------------0-----------|
                     I can    only think it must be love                         oh


 A/E
|-----------------------------|------------------------------|---------------------------|
|---------10------------10----|----------10------------10----|---------------------------|
|-------------9-------------9-|--------------9-------------9-|---------------------------|
|-----11------------11--------|------11------------11--------|---------------------------|
|-----------------------------|------------------------------|---------------------------|
|--0-------------0------------|--0--------------0------------|-0--0--12---12---0-0---12--|
anyway                   It's  looking  like a  beautiful day


|----------------------------|
|----------------------------|
|----------------------------|
|----------------------------|
|----------------------------|
|-0--0--12---12---0--0---12--|



VERSE 3

 E                                                          A/E
|--------------------------|---------------------------|-------------------------------|
|---------9-----------9----|-------9h10-9--12--10--9---|----------10-------------10----|
|------------9-----------9-|-------------------------9-|--------------9--------------9-|
|-----9------------9-------|----9----------------------|------11------------11---------|
|--------------------------|---------------------------|-------------------------------|
|-0-------------0----------|-0-------------------------|-0---------------0-------------|
 Someone tell me how I feel                              silly wrong but vivid right


                    B/E        A/E                                           B/E
|-----------------------------|------------------------------|--------------------------|
|--------10h12-10-------12----|----------10------------10----|-------10----------12-----|
|--------------------------11-|--------------9-------------9-|-----------9-----------11-|
|----11--------------13-------|------11-------------11-------|----11----------13--------|
|-----------------------------|------------------------------|--------------------------|
|-0---------------0-----------|--0---------------0-----------|-0------------0-----------|
                         Oh    kiss me like the final meal                       yeah


 A/E                                                B/E
|-------------------------------|-------------------------------|
|-----------10-------------10---|----------10------------12-----|
|-----------------------------9-|--------------9-------------11-|
|------11-----------------------|------11------------13---------|
|-------------------------------|-------------------------------|
|--0------------0---0---0-------|--0--------------0-------------|
 kiss me like we die tonight                                'cos



CHORUS 1

 E                                                       A/E
|----------------------------|--------------------------|------------------------------|
|---------9-------------9----|-------9h10-9--------9----|----------10-------------10---|
|------------9-------------9-|------------------------9-|--------------9-------------9-|
|-----9--------------9-------|----9-------------9-------|------11----------------------|
|----------------------------|--------------------------|------------------------------|
|-0--------------0-----------|-0-------------0----------|--0---------------0---0-------|
 holy cow I love your eyes                           and only now I see the light


                 B/E          A/E                                  B/E
|---------------------------|---------------------------|---------------------------|
|--------10----------12-----|---------10-----------10---|--------10----------12-----|
|------------9-----------11-|-------------9-----------9-|------------9-----------11-|
|-----------------13--------|-----11--------------------|-----------------13--------|
|---------------------------|---------------------------|---------------------------|
|-0--0----------0-----------|-0--------------0---0------|-0--0----------0-----------|
                             lying with me half awake                        Oh


 A/E
|---------------------------|-----------------------------|----------------------------|
|-------10------------10----|---------10------------10----|----------------------------|
|-----------9-------------9-|-------------9-------------9-|----------------------------|
|---------------------------|-----------------------------|----------------------------|
|---------------------------|-----------------------------|----------------------------|
|-0--0----------0--0--------|--0---0----------0--0--------|-0--0--12---12---0--0---12--|
 anyway                 It's looking like a beautiful day


|----------------------------|----------------------------|----12--11------9-----------|
|----------------------------|----------------------------|------------12-----9---9/12-|
|----------------------------|----------------------------|-9--------------------------|
|----------------------------|----------------------------|----------------------------|
|----------------------------|----------------------------|----------------------------|
|-0--0--12---12---0--0---12--|-0--0--12---12---0--0---12--|----------------------------|



VERSE 4

|------------------------------|----------------------------|----------------------------|
|------------------------------|----------------------------|----------------------------|
|------------------------------|----------------------------|----------------------------|
|------------------------------|----------------------------|----------------------------|
|------------------------------|----------------------------|----------------------------|
|------------------------------|-0--0--12---12---0--0---12--|----------------------------|
 When my face is chamois creased                             If you think I'll wink I did


|----------------------------|-----------------------------------------|
|----------------------------|-----------------------------------------|
|----------------------------|-----------------------------------------|
|----------------------------|-----------------------------------------|
|----------------------------|-----------------------------------------|
|-0--0--12---12---0--0---12--|--12---12---12---12---12---12---12---12--|
                               Laugh  politely   at     repeats


|-----------------------------|-------------------------------|--------------------------|
|-----------------------------|-------------------------------|--------------------------|
|-----------------------------|-------------------------------|--------------------------|
|-----------------------------|-------------------------------|--------------------------|
|-----------------------------|-------------------------------|--------------------------|
|-0-0--12---12--0-0--12---12--|-12---12---12---12---12---12---|-0-0--12---12---0--0--12\-|
                              kiss me when my lips are thin



CHORUS 2

 E                                                       A/E
|------------------------------|------------------------|--------------------------------|
|--------9--------------9h10-9-|-------9---------9h10-9-|---------10-------------10h12-10|
|-----------9------------------|----------9-------------|-------------9------------------|
|-----9------------9-----------|----9----------9--------|-----11-------------11----------|
|------------------------------|------------------------|--------------------------------|
|-0------------0---------------|-0----------0-----------|-0---------------0--------------|
 holy cow I love your eyes                           and only now I see the light


                 B/E         A/E                                          B/E
|---------------------------|---------------------------|------------------------------|
|--------10----------12-----|-------10------------10----|---------10------------12-----|
|------------9-----------11-|-----------9-------------9-|-------------9-------------11-|
|----11-----------13--------|---11-------------11-------|------------------------------|
|---------------------------|---------------------------|------------------------------|
|-0-------------0-----------|-0-------------0-----------|--0---0----------0--0---------|
                             lying with me half awake                           oh


|-----------------------------|-----------------------------|---------------------------|
|---------10------------10----|---------10------------------|---------------------------|
|-------------9---------------|-------------9---------9\----|---------------------------|
|-----------------------------|-----------------------------|---------------------------|
|-----------------------------|-----------------------------|---------------------------|
|--0---0----------0--0------0-|--0---0----------0--0--------|-0-0--12---12---0--0---12--|
 anyway                    It's looking like a beautiful day


|----------------------------|---------------------------|---------------------------|
|----------------------------|---------------------------|---------------------------|
|----------------------------|---------------------------|---------------------------|
|----------------------------|---------------------------|---------------------------|
|----------------------------|---------------------------|---------------------------|
|-0--0--12---12---0--0---12--|-0-0--12---12---0--0---12\-|-0-0--12---12---0--0---12\-|
                                                                                 So



OUTRO CHORDS

   E            D            A
  ______      xx____       x_____
  |||♦||      ||||||       ||||||
  |♦♦|||      |||♦|♦       ||♦♦♦|
  ||||||      ||||♦|       ||||||
  ||||||      ||||||       ||||||
  ||||||      ||||||       ||||||


OUTRO

 E                        D                          A
|-------------0----------|-------------3p2----------|----------------0----------|
|----------------0-----0-|-------3----------3-----3-|-------------2-----2-------|
|-------1-----------1----|----2----------------2----|---------2------------2----|
|----2-------------------|-0--------0---------------|-----2-------------------2-|
|------------------------|--------------------------|-0-------------------------|
|-0--------0-------------|--------------------------|---------------------------|
 throw those curtains  wide                   One    day like this year'd see me


 E                                               D
|-----------------------|-----------------------|-------------3p2----------|
|----------------0------|----------------0------|-------3----------3-----3-|
|-------1-----1-----1---|-------1-----1-----1---|----2----------------2----|
|----2----------------2-|----2----------------2-|-0--------0---------------|
|-----------------------|-----------------------|--------------------------|
|-0--------0------------|-0--------0------------|--------------------------|
 right                   throw those curtains  wide                   One


 A                           E
|----------------0----------|-----------------------|-----------------------|
|-------------2-----2-------|----------------0------|----------------0------|
|---------2------------2----|-------1-----1-----1---|-------1-----1-----1---|
|-----2-------------------2-|----2----------------2-|----2----------------2-|
|-0-------------------------|-----------------------|-----------------------|
|---------------------------|-0--------0------------|-0--------0------------|
 day like this year'd see me right                   throw those curtains wide


 D                          A                           E
|-------------3p2----------|---------------------------|-------------0---------|
|-------3----------3-----3-|----------------2----------|----------0-----0------|
|----2----------------2----|---------2---------2-----2-|-------1-----------1---|
|-0--------0---------------|-----2----------------2----|----2----------------2-|
|--------------------------|-0-----------0-------------|-----------------------|
|--------------------------|---------------------------|-0---------------------|
                      One   day like this year'd see me right


 E                       D                          A
|-------------0---------|-------------3p2----------|---------------------------|
|----------0-----0------|-------3----------3-----3-|----------------2----------|
|-------1-----------1---|----2----------------2----|---------2---------2-----2-|
|----2----------------2-|-0--------0---------------|-----2----------------2----|
|-----------------------|--------------------------|-0-----------0-------------|
|-0---------------------|--------------------------|---------------------------|
 throw those curtains  wide                   One    day like this year'd see me


 E                                               D
|-------------0---------|-----------------------|-------3p2-----3--2p0----|
|----------0-----0------|----------------0------|------------3----------3-|
|-------1-----------1---|-------1-----1-----1---|----2--------------------|
|----2----------------2-|----2----------------2-|-0-----------------------|
|-----------------------|-----------------------|-------------------------|
|-0---------------------|-0--------0------------|-------------------------|
 right                   throw those curtains  wide                   One


 A                           E
|---------------------------|-------------0---------|-----------------------|
|----------------2----------|----------0-----0------|-----------------------|
|---------2---------2-----2-|-------1-----------1---|-----------------------|
|-----2----------------2----|----2----------------2-|-----------------------|
|-0-----------0-------------|-----------------------|-----------------------|
|---------------------------|-0---------------------|-0---------------------|
 day like this year'd see me right                   throw those curtains wide


 D                          A                           E
|-------2--------3--2----|---------------------------|----------------|
|----------3-----------3-|-2-------------------------|-0--------------|
|----2--------2----------|-2-------------------------|-1--------------|
|-0----------------------|-2-------------------------|-2--------------|
|------------------------|-0-------------------------|-2--------------|
|------------------------|---------------------------|-0--------------|
                      One day like this year'd see me right
Suggest correction
Give kudos to tab author, rate the tab!
1 2 3 4 5
comments
print report bad tab
guest
You may want to rate the tab now too:
select rating
Wanna post a correction for this tab? Suggest correction