Oops, an error
Loading. Please wait.

Something Chords

901 views 6 this week
no commentswrite comment
1 2 3 4 5
1 last vote to show rating
add to favorites
launch autoscroll
font size
0
reset
transpose
0
reset
simplify chords
display chords
guitar tuner
×
Best way to learn
"Something"
Autoscroll
slow
fast
+/-
esc
set tempo
stop
Author
Difficulty
  follow
intermediate
Something by George Harrison - Acoustic cover by the Moon Loungers

YouTube video - https://www.youtube.com/watch?v=AThDYTsTrrU


CHORDS

    F           Eb           G            C          Cmaj7          C7           D
  ______      x_x___       ______       ______       ______       x_x__x       xx____
  ♦|||♦|      ||||||       ||||||       ||||♦|       ||||||       ||||||       ||||||
  |||♦||    6 |♦||♦♦       |♦||||       ||♦|||       ||♦|||       ||||||       |||♦|♦
  |♦♦|||      ||||||       ♦|||♦♦       |♦||||       |♦||||       |♦|♦♦|       ||||♦|
  ||||||      ||||||       ||||||       ||||||       ||||||       ||||||       ||||||

    D7         G/A          G/Bb         G/B           Am          AmM7         Am7
  x_____      x_x___       x_x___       x_x___       x_____       x_____       x_____
3 ||||♦|      ||||||       |♦||||       ||||||       ||||♦|       |||♦♦|       ||||♦|
  ||♦|||      ||||||       ||||||       |♦||||       ||♦♦||       ||♦|||       ||♦|||
  |♦|♦||      ||||♦♦       ||||♦♦       ||||♦♦       ||||||       ||||||       ||||||
  ||||||      ||||||       ||||||       ||||||       ||||||       ||||||       ||||||

    A          C#m          F#m          F/E          A2           A/G#         A/F#
  ______      x_____       ______       ______       x_____       ______       ______
5 ╪╪╪╪╪╪    4 ╪╪╪╪╪╪       ||||||       ||||♦|       ||||||       ||||||       ||||||
  |||♦||      ||||♦|       ╪╪╪╪╪╪       |||♦||       ||♦♦♦|       ||♦♦♦|       ♦|♦♦♦|
  |♦♦|||      ||♦♦||       ||||||       |♦♦|||       ||||||       ||||||       ||||||
  ||||||      ||||||       |♦♦|||       ||||||       ||||||       ♦|||||       ||||||
  ||||||      ||||||       ||||||       ||||||       ||||||       ||||||       ||||||

   A/E         A/C#         A/B
  ______      ______       ______
  ||||||      ||||||       ||||||
  ||♦♦♦|      ||♦♦♦|       |♦♦♦♦|
  ||||||      ||||||       ||||||
  ||||||      |♦||||       ||||||
  ||||||      ||||||       ||||||




INTRO

|     F     |   Eb    G   |



VERSE 1

C                        Cmaj7   C7                                  F    F/E
Something in the way she moves       attracts me like no other lover
D                D7       G       G/A     G/Bb    G/B
Something in the way she woos me
Am                        AmM7      Am7              D7
I don't want to leave her now  you know I believe in how


|     F     |   Eb    G   |


VERSE 2

C                          Cmaj7   C7                             F     F/E
Somewhere in her smile she knows     that I don't need no other lover
D                 D7          G       G/A     G/Bb    G/B
Something in her style that shows me
Am                          AmM7   Am7                D
I don't want to leave her now  you know I believe in how


|     F    Eb    G   |     A     |


BRIDGE

A             C#m              F#m
You're asking me will my love grow
         D    G             A2     A/G#    A/F#    A/E    A/C#    A/B
I don't know  I don't know
 A2         C#m             F#m
You stick around and it may show
         D    G        C
I don't know  I don't know



GUITAR SOLO

 C             Cmaj7                 C7
|-------------|---------------------|--------------------8---8--10-|
|-------8-----|------8b10--8b10--5--|------8h10p8--/10-------------|
|--7/9-----9--|-7/9-----------------|-7h9--------------------------|
|-------------|---------------------|------------------------------|
|-------------|---------------------|------------------------------|
|-------------|---------------------|------------------------------|


 F                              F/E          D        D7
|-12p10--8----------------8--8-------3--3--|--------------------5b6b5-|
|-----------10-----8/10---------3/5--------|--------------7--7--------|
|------------------------------------------|---------5/7--------------|
|------------------------------------------|-7--9\7-------------------|
|------------------------------------------|--------------------------|
|------------------------------------------|--------------------------|


  G       G/A     G/Bb     G/B         Am         AmM7              Am7
|-5b7b5b7b5---3---/9-8-7---/12-11-10--|-------------------------------------------------|
|-------------------------------------|------------------------------------------8--10--|
|-------------------------------------|--7b9b7p5--7--7--7b9b7p5----7b9b7p5--7/9---------|
|-------------------------------------|-------------------------------------------------|
|-------------------------------------|-------------------------------------------------|
|-------------------------------------|-------------------------------------------------|

 D7                        F                       Eb  G   C
|-10b12--12b10--8--10--8--|------------------------------------|
|-------------------------|-10--10--12b14--12--10--11--12--13--|
|-------------------------|------------------------------------|
|-------------------------|------------------------------------|
|-------------------------|------------------------------------|
|-------------------------|------------------------------------|



VERSE 3

C                        Cmaj7   C7                         F             F/E
Something in the way she knows     and all I have to do is think of her
D                 D7          G       G/A     G/Bb    G/B
Something in the things she shows me
Am                        AmM7      Am7              D7
I don't want to leave her now  you know I believe in how



|  F   Eb   G  |    A     |  F   Eb   G  |    C     |

Suggest correction
Give kudos to tab author, rate the tab!
1 2 3 4 5
comments
print report bad tab
guest
You may want to rate the tab now too:
select rating
Wanna post a correction for this tab? Suggest correction