Oops, an error
Loading. Please wait.

Sunny Afternoon Tab

476 views 1 this week
no commentswrite comment
1 2 3 4 5
3 more votes to show rating
add to favorites
launch autoscroll
font size
0
reset
how to read this tab
guitar tuner
Autoscroll
slow
fast
+/-
esc
set tempo
stop
Help us to improve Ultimate-Guitar.com Take our survey!
×
Author
Difficulty
  follow
intermediate
Sunny Afternoon - acoustic cover by the Moon Loungers

YouTube Video - https://www.youtube.com/watch?v=XucQhj_3OEM


CHORDS

       EADGBE               EADGBE        
      --------             --------  
Dm     xx0231        A/E    002220
Dm/C   x30231        C7     x32310
Dm/B   x20231        C7/G   3x2310
Dm/Bb  x10231        D7     xx0212    
A      x02220        G7     320001
A/G    302220        F      133211
A/F    102220        A7     x02020                             
                     


INTRO

 Dm     Dm/C  Dm/B   Dm/Bb A      A/C   A/F    A/E
|-1--1--1--1-|-1--1--1--1-|------------|------------|
|-3--3--3--3-|-3--3--3--3-|-2--2--2--2-|-2--2--2--2-|
|-2--2--2--2-|-2--2--2--2-|-2--2--2--2-|-2--2--2--2-|
|-0--0-------|------------|-2--2--2--2-|-2--2--2--2-|
|-------3--3-|-2--2--1--1-|-0--0-------|------------|
|------------|------------|-------3--3-|-1--1--0--0-|


 Dm          Dm/C         Dm/B       Dm/Bb         A           A/G  
|-1--------1-----1-------|------------------------|-------------------------|
|-------3-----------3----|----3-----------3-------|-2h3p2-----------2-------|
|----2-----------------2-|-------2-----------2----|-----------2--------2----|
|-0----------------------|----------0-----------0-|--------2--------------2-|
|-------------3----------|-2-----------1----------|-0-----------------------|
|------------------------|------------------------|--------------3----------|


 A/F         A/E
|------------------------|
|-2--------2-----2-------|
|-2-----2-----------2----|
|-2--2-----------------2-|
|------------------------|
|-1-----------0----------|



VERSE 1

 Dm                      C7                   F                     C7
|------------1----------|--------------------|---------------------|---------------------|
|---------3-----3-----1-|----------1---------|----------1----------|----------1----------|
|------2-----------2----|-------3-----3----0-|-------2-----2-----0-|-------3-----3-----3-|
|---0-------------------|----2-----------2---|----3-----------3----|----2-----------2----|
|-----------------------|-3------------------|---------------------|-3-------------------|
|-----------------------|--------------------|-1-------------------|---------------------|
The tax man's taken       all my dough    And left  me  in  my      stately home


 A           A/G          A/F         A/E
|------------------------|------------------------|
|-------2-----------2----|-------2-----------2----|
|-------2-----------2----|-------2-----------2----|
|----2-----2-----2-----2-|----2-----2-----2-----2-|
|-0----------------------|------------------------|
|-------------3----------|-1-----------0----------|
  lazing     on  a        sunny       after -      


 Dm                    C7                   F                     C7
|----------1----------|--------------------|---------------------|---------------------|
|-------3-----3-----1-|----------1---------|----------1----------|----------1----------|
|----2-----------2----|-------3-----3----0-|-------2-----2-----0-|-------3-----3-----3-|
|-0-------------------|----2-----------2---|----3-----------3----|----2-----------2----|
|---------------------|-3------------------|---------------------|-3-------------------|
|---------------------|--------------------|-1-------------------|---------------------|
 noon    And I can't   sail my yacht    he’s taken     every  -  thing I’ve got


 A           A/G          A/F         A/E          Dm                 
|------------------------|------------------------|-1--------1p0----------|-3--------3p1----------|
|-------2-----------2----|-------2-----------2----|-------3-------3-----3-|-------3-------3-----3-|
|-------2-----------2----|-------2-----------2----|----2-------------2----|----2-------------2----|
|----2-----2-----2-----2-|----2-----2-----2-----2-|-0---------------------|-0---------------------|
|-0----------------------|------------------------|-----------------------|-----------------------|
|-------------3----------|-1-----------0----------|-----------------------|-----------------------|
 All I’ve got’s this      sunny        after  -    noon



CHORUS

 D7                                            G7
|-2--------2----------|-3--------3p2----------|----------1----------|-3--------3p1----------|
|-------1-----1-----1-|-------1-------1-----1-|-------0-----0-----0-|-------0-------0-----0-|
|----2-----------2----|----2-------------2----|----0-----------0----|----0-------------0----|
|-0-------------------|-0---------------------|---------------------|-----------------------|
|---------------------|-----------------------|---------------------|-----------------------|
|---------------------|-----------------------|-3-------------------|-3---------------------|
 Save  me  save  me     save me from this       squeeze                             I got a   


 C7         C7/G         C7         C7/G        F                        A     A/G  A/F    A/E
|-----------------------|-----------------------|-----------------------|------------------------|
|----------1----------1-|----------1----------1-|----------1----1-------|-2----------------------|
|-------3----------3----|-------3----------3----|-------2----------2----|------------------------|
|----2----------2-------|----2----------2-------|----3----------------3-|----2-----2-----2-----2-|
|-3---------------------|-3---------------------|------------3----------|-0----------------------|
|------------3----------|------------3----------|-1---------------------|-------3-----1-----0----|         
  big  fat    mama        trying to  bre - ak   me                                         And I


 Dm                    G7                    D7                    G7          C7
|----------1----------|----------1----------|----------2----------|-------1----------------|
|-------3-----3-----1-|-------0-----0-----0-|-------1-----1-----0-|-------0-----------1----|
|----2-----------2----|----0-----------0----|----2-----------2----|----0-----0--------3----|
|-0-------------------|---------------------|-0-------------------|----------------2-----2-|
|---------------------|---------------------|---------------------|-------------3----------|
|---------------------|-3-------------------|---------------------|-3----------------------|
 love  to  live  so     pleasantly           live this life of      lux   -   u   -   ry 


 F                       A7                       Dm    Dm/C   Dm/B   Dm/Bb
|-----------------------|------------------------|-1--1--1--1-|-1--1--1--1-|
|----------1----1-------|-------------2----------|-3--3--3--3-|-3--3--3--3-|
|-------2----------2----|-------0--------0-----0-|-2--2--2--2-|-2--2--2--2-|
|----3----------------3-|----2--------------2----|-0--0-------|------------|
|------------3----------|-0--------0-------------|-------3--3-|-2--2--1--1-|
|-1---------------------|------------------------|------------|------------|
  Lazing    on  a         sunny       after   -                       in the


 A        A/C    A/F    A/E    Dm        Dm/C   Dm/B  Dm/Bb  A        A/C    A/F    A/E
|---------------|-------------|--1---1----1--1-|-1--1--1--1-|---------------|-------------|
|-2---2----2--2-|-2--2--2--2--|--3---3----3--3-|-3--3--3--3-|-2---2----2--2-|-2--2--2--2--|
|-2---2----2--2-|-2--2--2--2--|--2---2----2--2-|-2--2--2--2-|-2---2----2--2-|-2--2--2--2--|
|-2---2----2--2-|-2--2--2--2--|--0---0---------|------------|-2---2----2--2-|-2--2--2--2--|
|-0---0---------|-------------|-----------3--3-|-2--2--1--1-|-0---0---------|-------------|
|----------3--3-|-1--1--0--0--|----------------|------------|----------3--3-|-1--1--0--0--|
 summer time             in the summer time            in the summer time



VERSE 2

 Dm                      C7                   F                     C7
|-------------1----------|--------------------|---------------------|---------------------|
|----------3-----3-----1-|----------1---------|----------1----------|----------1----------|
|-------2-----------2----|-------3-----3----0-|-------2-----2-----0-|-------3-----3-----3-|
|----0-------------------|----2-----------2---|----3-----------3----|----2-----------2----|
|------------------------|-3------------------|---------------------|-3-------------------|
|------------------------|--------------------|-1-------------------|---------------------|
 My girlfriend’s run off with my car       And gone  back  to  her    ma and pa


 A           A/G          A/F         A/E
|------------------------|------------------------|
|-------2-----------2----|-------2-----------2----|
|-------2-----------2----|-------2-----------2----|
|----2-----2-----2-----2-|----2-----2-----2-----2-|
|-0----------------------|------------------------|
|-------------3----------|-1-----------0----------|
 Telling   tales   of     drunkenness   and 


 Dm                    C7                   F                     C7
|----------1----------|--------------------|---------------------|---------------------|
|-------3-----3-----1-|----------1---------|----------1----------|----------1----------|
|----2-----------2----|-------3-----3----0-|-------2-----2-----0-|-------3-----3-----3-|
|-0-------------------|----2-----------2---|----3-----------3----|----2-----------2----|
|---------------------|-3------------------|---------------------|-3-------------------|
|---------------------|--------------------|-1-------------------|---------------------|
 cruelty  Now I’m      sitting here          sipping   at  my     ice cold beer


 A           A/G          A/F         A/E          Dm          
|------------------------|------------------------|-1--------1p0----------|-3--------3p1----------|
|-------2-----------2----|-------2-----------2----|-------3-------3-----3-|-------3-------3-----3-|
|-------2-----------2----|-------2-----------2----|----2-------------2----|----2-------------2----|
|----2-----2-----2-----2-|----2-----2-----2-----2-|-0---------------------|-0---------------------|
|-0----------------------|------------------------|-----------------------|-----------------------|
|-------------3----------|-1-----------0----------|-----------------------|-----------------------|
  Lazing    on      a      sunny      after   -    noon        



CHORUS

 D7                                            G7
|-2--------2----------|-3--------3p2----------|----------1----------|-3--------3p1----------|
|-------1-----1-----1-|-------1-------1-----1-|-------0-----0-----0-|-------0-------0-----0-|
|----2-----------2----|----2-------------2----|----0-----------0----|----0-------------0----|
|-0-------------------|-0---------------------|---------------------|-----------------------|
|---------------------|-----------------------|---------------------|-----------------------|
|---------------------|-----------------------|-3-------------------|-3---------------------|
 Help  me  help  me     help  me  sail a -      way-   hay                           Give me


 C7         C7/G         C7         C7/G        F                        A     A/G  A/F    A/E
|-----------------------|-----------------------|-----------------------|------------------------|
|----------1----------1-|----------1----------1-|----------1----1-------|-2----------------------|
|-------3----------3----|-------3----------3----|-------2----------2----|------------------------|
|----2----------2-------|----2----------2-------|----3----------------3-|----2-----2-----2-----2-|
|-3---------------------|-3---------------------|------------3----------|-0----------------------|
|------------3----------|------------3----------|-1---------------------|-------3-----1-----0----|         
 two  good  reasons      why    I  ought a       stay                                       Cos I


 Dm                    G7                    D7                    G7          C7
|----------1----------|----------1----------|----------2----------|-------1----------------|
|-------3-----3-----1-|-------0-----0-----0-|-------1-----1-----0-|-------0-----------1----|
|----2-----------2----|----0-----------0----|----2-----------2----|----0-----0--------3----|
|-0-------------------|---------------------|-0-------------------|----------------2-----2-|
|---------------------|---------------------|---------------------|-------------3----------|
|---------------------|-3-------------------|---------------------|-3----------------------|
 love  to  live  so     pleasantly           live this life of      lux   -   u   -   ry 


 F                       A7                       Dm    Dm/C   Dm/B   Dm/Bb
|-----------------------|------------------------|-1--1--1--1-|-1--1--1--1-|
|----------1----1-------|-------------2----------|-3--3--3--3-|-3--3--3--3-|
|-------2----------2----|-------0--------0-----0-|-2--2--2--2-|-2--2--2--2-|
|----3----------------3-|----2--------------2----|-0--0-------|------------|
|------------3----------|-0--------0-------------|-------3--3-|-2--2--1--1-|
|-1---------------------|------------------------|------------|------------|
  Lazing    on  a         sunny       after   -                       in the


 A        A/C    A/F    A/E    Dm        Dm/C   Dm/B  Dm/Bb  A        A/C    A/F    A/E
|---------------|-------------|--1---1----1--1-|-1--1--1--1-|---------------|-------------|
|-2---2----2--2-|-2--2--2--2--|--3---3----3--3-|-3--3--3--3-|-2---2----2--2-|-2--2--2--2--|
|-2---2----2--2-|-2--2--2--2--|--2---2----2--2-|-2--2--2--2-|-2---2----2--2-|-2--2--2--2--|
|-2---2----2--2-|-2--2--2--2--|--0---0---------|------------|-2---2----2--2-|-2--2--2--2--|
|-0---0---------|-------------|-----------3--3-|-2--2--1--1-|-0---0---------|-------------|
|----------3--3-|-1--1--0--0--|----------------|------------|----------3--3-|-1--1--0--0--|
 summer time             in the summer time            in the summer time



CHORUS

 D7                                            G7
|-2--------2----------|-3--------3p2----------|----------1----------|-3--------3p1----------|
|-------1-----1-----1-|-------1-------1-----1-|-------0-----0-----0-|-------0-------0-----0-|
|----2-----------2----|----2-------------2----|----0-----------0----|----0-------------0----|
|-0-------------------|-0---------------------|---------------------|-----------------------|
|---------------------|-----------------------|---------------------|-----------------------|
|---------------------|-----------------------|-3-------------------|-3---------------------|
 Save  me  save  me     save me from this       squeeze                             I got a   


 C7         C7/G         C7         C7/G        F                        A     A/G  A/F    A/E
|-----------------------|-----------------------|-----------------------|------------------------|
|----------1----------1-|----------1----------1-|----------1----1-------|-2----------------------|
|-------3----------3----|-------3----------3----|-------2----------2----|------------------------|
|----2----------2-------|----2----------2-------|----3----------------3-|----2-----2-----2-----2-|
|-3---------------------|-3---------------------|------------3----------|-0----------------------|
|------------3----------|------------3----------|-1---------------------|-------3-----1-----0----|         
  big  fat    mama        trying to  bre - ak   me                                         And I


 Dm                    G7                    D7                    G7          C7
|----------1----------|----------1----------|----------2----------|-------1----------------|
|-------3-----3-----1-|-------0-----0-----0-|-------1-----1-----0-|-------0-----------1----|
|----2-----------2----|----0-----------0----|----2-----------2----|----0-----0--------3----|
|-0-------------------|---------------------|-0-------------------|----------------2-----2-|
|---------------------|---------------------|---------------------|-------------3----------|
|---------------------|-3-------------------|---------------------|-3----------------------|
 love  to  live  so     pleasantly           live this life of      lux   -   u   -   ry 


 F                       A7                       Dm    Dm/C   Dm/B   Dm/Bb
|-----------------------|------------------------|-1--1--1--1-|-1--1--1--1-|
|----------1----1-------|-------------2----------|-3--3--3--3-|-3--3--3--3-|
|-------2----------2----|-------0--------0-----0-|-2--2--2--2-|-2--2--2--2-|
|----3----------------3-|----2--------------2----|-0--0-------|------------|
|------------3----------|-0--------0-------------|-------3--3-|-2--2--1--1-|
|-1---------------------|------------------------|------------|------------|
  Lazing    on  a         sunny       after   -    nooooo      -   oon   in the


 A        A/C    A/F    A/E    Dm        Dm/C   Dm/B  Dm/Bb  A        A/C    A/F    A/E
|---------------|-------------|--1---1----1--1-|-1--1--1--1-|---------------|-------------|
|-2---2----2--2-|-2--2--2--2--|--3---3----3--3-|-3--3--3--3-|-2---2----2--2-|-2--2--2--2--|
|-2---2----2--2-|-2--2--2--2--|--2---2----2--2-|-2--2--2--2-|-2---2----2--2-|-2--2--2--2--|
|-2---2----2--2-|-2--2--2--2--|--0---0---------|------------|-2---2----2--2-|-2--2--2--2--|
|-0---0---------|-------------|-----------3--3-|-2--2--1--1-|-0---0---------|-------------|
|----------3--3-|-1--1--0--0--|----------------|------------|----------3--3-|-1--1--0--0--|
 summer time             in the summer time            in the summer time             in the


 Dm          Dm/C         Dm/B       Dm/Bb         A           A/G  
|-1--------1-----1-------|------------------------|-------------------------|
|-------3-----------3----|----3-----------3-------|-------2------------2----|
|----2-----------------2-|-------2-----------2----|-------2------------2----|
|-0----------------------|----------0-----------0-|----2-----2------2-----2-|
|-------------3----------|-2-----------1----------|-0-----------------------|
|------------------------|------------------------|--------------3----------|
 summer  tiiiiiii       -      iiiime               in  the summer  tiiii  - 


 A/F         A/E          Dm        Dm/C   Dm/B   Dm/Bb        
|------------------------|--1---1----1--1-|-1--1--1--1-|
|-------2-----------2----|--3---3----3--3-|-3--3--3--3-|
|-------2-----------2----|--2---2----2--2-|-2--2--2--2-|
|----2-----2-----2-----2-|--0---0---------|------------|
|------------------------|-----------3--3-|-2--2--1--1-|
|-1-----------0----------|----------------|------------|
      -      iiime

 A           A/G           A/F         A/E                Dm (bar chord)                
|-------------------------|------------------------------|--------------5-----------10-|
|-2h3p2--------------2----|-------2--------------2-------|-----------6-----6-----------|
|-----------2--------2----|-------2-----------2-----2----|--------7-----------7--------|
|--------2--------2-----2-|----2-----2-----2-----------2-|-----7-----------------7-----|
|-0-----------------------|------------------------------|-/5--------------------------|
|--------------3----------|-1-----------0----------------|-----------------------------|
 

Suggest correction
Give kudos to tab author, rate the tab!
1 2 3 4 5
comments
print report bad tab
guest
You may want to rate the tab now too:
select rating
Wanna post a correction for this tab? Suggest correction