Oops, an error
Loading. Please wait.

Young And Beautiful Tab

1,514 views 3 this week
no commentswrite comment
1 2 3 4 5
2 more votes to show rating
add to favorites
launch autoscroll
font size
0
reset
how to read this tab
guitar tuner
Autoscroll
slow
fast
+/-
esc
set tempo
stop
Author
Capo
7th fret
Young and Beautiful by Lana Del Rey - Acoustic Cover by the Moon Loungers

YouTube Video - https://www.youtube.com/watch?v=yeUoGP9-45k

Note - The Moon Loungers’ acoustic version is played a tone lower than the original; 
to play along with the Lana Del Rey version using these chords, 
place your capo on the 7th fret.


CHORDS (Capo 5th fret)

      EADGBE
     --------
G     320033
C     x32010
D     xx0232
Em7   022033

INTRO

|-2--0--5--|-2--0--5--|-2--0-----|----|-2--0--5--|-2--0--5--|-2--0-----|----|
|-1--------|-3--------|-0-----0--|-3--|-1--------|-3--------|-0-----0--|-3--|
|-0--------|-2--------|-0--------|-0--|-0--------|-2--------|-0--------|-0--|
|----------|-0--------|----------|-0--|----------|-0--------|----------|-0--|
|-3--------|----------|----------|----|-3--------|----------|----------|----|
|----------|----------|-0--------|-3--|----------|----------|-0--------|-3--|

VERSE 1
 C                          D            Em7          G
|--------------------------|------------|-3----------|------------|
|--------------------------|-------3----|------------|------------|
|---------------------0----|----2-----2-|-------0----|-------0----|
|-----------------2------2-|-0----------|----2-----2-|----0-----0-|
|--------------3-----------|------------|------------|------------|
|--------------------------|------------|-0----------|-3----------|
I've seen the world  done it all had my  cake now           Diamonds


 C             D            Em7          G                 C             D
|----0--------|----2-------|-3----------|-----------------|-------------|----2------------|
|--------1----|-------3----|------------|-----------------|-------------|---------3-------|
|-----------0-|----------2-|-------0----|---------0-------|--------0----|---------------2-|
|-------------|-0----------|----2-----2-|----0----------0-|----2------2-|-0---------------|
|-3-----------|------------|------------|-----------------|-3-----------|-----------------|
|-------------|------------|-0----------|-3---------------|-------------|-----------------|
       brilliant    and Bel air  now        Hot summer nights    mid July    when you     and I

 G                  Em7               C                    D
|------------------|-3---------------|----0---------------|----2-----------------|
|------------------|-----------------|----------1---------|----------3-----------|
|-----------0------|----------0------|------------------0-|-------------------2--|
|----0-----------0-|----2---------2--|--------------------|-0--------------------|
|------------------|-----------------|-3------------------|----------------------|
|-3----------------|-0---------------|--------------------|----------------------|
   were for ever wild    The crazy days    the city lights      the way you'd play

 Em7             G
|-3-------------|-----------------|
|---------------|-----------------|
|---------0-----|---------0-------|
|----2--------2-|----0------------|
|---------------|---------------2-|
|-0-------------|-3---------------|
with me like a child

CHORUS 1

 C                     D                 Em7             G
|---------------------|-----------------|-3-------------|---------------|
|---------------------|-----------3-----|---------------|---------------|
|-------------0-------|------2----------|-----------0---|---------0-----|
|-------2-------------|-0-------------0-|--------2------|----0----------|
|-3-----------------3-|-----------------|---------------|-------------2-|
|---------------------|-----------------|-0-----------2-|-3-------------|
Will you still love me when I'm no longer young and beaut - i - ful?


 C                     D                 Em7             G
|---------------------|-----------------|-3------------|---------------|
|---------------------|-----------3-----|--------------|---------------|
|-------------0-------|------2----------|--------0-----|---------0-----|
|-------2-------------|-0-------------0-|----2---------|----0----------|
|-3-----------------3-|-----------------|--------------|-------------2-|
|---------------------|-----------------|-0----------2-|-3-------------|
Will you still love me when I got nothing but my aching soul? I know you


 C               D                     Em7             G
|---------------|---------------------|-3------------|-----------------|
|---------------|----------3----------|--------------|-----------------|
|--------0------|-----2---------------|--------0-----|----------0------|
|----2----------|-0-----------------0-|----2---------|----0------------|
|-3-----------3-|---------------------|--------------|---------------2-|
|---------------|---------------------|-0----------2-|-3---------------|
 will I know you will   I know that you wi - i - i  - il   Will you still


 C                   D                 Em7
|-------------------|-----------------|-3-----------|
|-------------------|-----------3-----|-------------|
|-------------0-----|------2----------|-------0-----|
|-------2-----------|-0-------------0-|----2--------|
|-3---------------3-|-----------------|-------------|
|-------------------|-----------------|-0---------2-|
 love me when I'm no longer beaut - i - f - ul

VERSE 2

 G                       C               D            Em7            G
|-----------------------|---------------|----2-------|-3------------|--------------|
|-----------------------|---------------|-------3----|--------------|--------------|
|----------0------------|--------0------|------------|--------0-----|-------0------|
|----0-----------0------|----2-------2--|-0--------0-|----2-------2-|----0------0--|
|-----------------------|-3-------------|------------|--------------|--------------|
|-3---------------------|---------------|------------|-0------------|-3------------|
      I've seen the world       lit it up       as my stage now            Chanelling


 C             D            Em7          G                 C              D
|----0--------|----2-------|-3----------|-----------------|----0---------|---2-------------|
|--------1----|-------3----|------------|-3---------------|--------1-----|--------3--------|
|-----------0-|----------2-|-------0----|----0----------0-|------------0-|-------------2---|
|-------------|-0----------|----2-----2-|---------0-------|--------------|-0---------------|
|-3-----------|------------|------------|-----------------|-3------------|-----------------|
|-------------|------------|-0----------|-3---------------|--------------|-----------------|
      angels in      the new age  now       Hot summer days     rock and roll the way   you'd play


 G                  Em7                 C                  D
|------------------|-3-----------------|----0-------------|--------------------|
|----3-------------|-------------------|--------1---------|----------3---------|
|-----------0------|----------0--------|-------------0----|----2---------------|
|----------------0-|----2---------2----|------------------|-0--------------0---|
|------------------|-------------------|-3----------------|--------------------|
|-3----------------|-0-----------------|------------------|--------------------|
    for me at your show  And all the ways    I got to know      your pretty face


 Em7               G
|-3---------------|-----------------|
|-----------------|-----------------|
|---------0-------|---------0-------|
|----2----------2-|----0------------|
|-----------------|---------------2-|
|-0---------------|-3---------------|
   and electric so-ul

CHORUS 2

 C                     D                 Em7             G
|---------------------|-----------------|-3-------------|---------------|
|---------------------|-----------3-----|---------------|---------------|
|-------------0-------|------2----------|-----------0---|---------0-----|
|-------2-------------|-0-------------0-|--------2------|----0----------|
|-3-----------------3-|-----------------|---------------|-------------2-|
|---------------------|-----------------|-0-----------2-|-3-------------|
Will you still love me when I'm no longer young and beaut - i - ful?


 C                     D                 Em7             G
|---------------------|-----------------|-3------------|---------------|
|---------------------|-----------3-----|--------------|---------------|
|-------------0-------|------2----------|--------0-----|---------0-----|
|-------2-------------|-0-------------0-|----2---------|----0----------|
|-3-----------------3-|-----------------|--------------|-------------2-|
|---------------------|-----------------|-0----------2-|-3-------------|
Will you still love me when I got nothing but my aching soul? I know you


 C               D                     Em7             G
|---------------|---------------------|-3------------|-----------------|
|---------------|----------3----------|--------------|-----------------|
|--------0------|-----2---------------|--------0-----|----------0------|
|----2----------|-0-----------------0-|----2---------|----0------------|
|-3-----------3-|---------------------|--------------|---------------2-|
|---------------|---------------------|-0----------2-|-3---------------|
 will I know you will   I know that you wi - i - i  - il   Will you still


 C                   D                 Em7
|-------------------|-----------------|-------------|
|-------------------|-----------3-----|-------------|
|-------------0-----|------2----------|-------0-----|
|-------2-----------|-0-------------0-|----2--------|
|-3---------------3-|-----------------|-------------|
|-------------------|-----------------|-0---------2-|
 love me when I'm no longer beaut - i - f - ul

VERSE 3

 G                 C                        D                        Em7
|-----------------|-------------0----------|-------------2----------|-------------3----------|
|-----------------|----------1-----1-------|-------3--------3-------|----------3-----3-------|
|----------0------|-------0-----------0----|----2-----2--------2----|-------0-----------0----|
|----0----------0-|----2-----------------2-|-0--------------------0-|----2-----------------2-|
|-----------------|-3----------------------|------------------------|------------------------|
|-3---------------|------------------------|------------------------|-0----------------------|
              Dear Lord       when I get to heaven            please let       me bring my

 G                        C                            D
|-------------3----------|-------------0--------------|--------------2----------|
|----------3-----3-------|----------1-----1-----------|--------3--------3-------|
|-------0-----------0----|-------0------------0-------|-----2-----2--------2----|
|----0-----------------0-|----2--------------------2--|--0--------------------0-|
|------------------------|-3--------------------------|-------------------------|
|-3----------------------|----------------------------|-------------------------|
 girl             When she comes     tell me that you'll let  me     Father


 Em7                      G                        C
|-------------3----------|-------------3----------|-------------0-----------|
|----------3-----3-------|----------3-----3-------|----------1-----1--------|
|-------0-----------0----|-------0-----------0----|-------0-----------0-----|
|----2-----------------2-|----0-----------------0-|----2-----------------2--|
|------------------------|------------------------|-3-----------------------|
|-0----------------------|-3----------------------|-------------------------|
 tell     me if    you    will        Oh    that   grace       oh   that


 D                       G                        Em7
|-------------2p0-------|-------------3----------|-------------3----------|
|-------3----------3----|----------3-----3-------|----------3-----3-------|
|----2-----2----------2-|-------0-----------0----|-------0-----------0----|
|-0---------------------|----0-----------------0-|----2-----------------2-|
|-----------------------|------------------------|------------------------|
|-----------------------|-3----------------------|-0----------------------|
 body        oh   that   face       makes me wanna party      She's my


 C                        D                        Em7                      G
|-------------0----------|-------------2----------|-------------3----------|-------------3-------|
|----------1-----1-------|-------3--------3-------|----------3-----3-------|----------3-----3----|
|-------0-----------0----|----2-----2--------2----|-------0-----------0----|-------0-------------|
|----2-----------------2-|-0--------------------0-|----2-----------------2-|----0----------------|
|-3----------------------|------------------------|------------------------|-------------------2-|
|------------------------|------------------------|-0----------------------|-3-------------------|
 sun      she makes me    shine    like di  -  a  - monds

CHORUS 3

 C                     D                 Em7             G
|---------------------|-----------------|-3-------------|---------------|
|---------------------|-----------3-----|---------------|---------------|
|-------------0-------|------2----------|-----------0---|---------0-----|
|-------2-------------|-0-------------0-|--------2------|----0----------|
|-3-----------------3-|-----------------|---------------|-------------2-|
|---------------------|-----------------|-0-----------2-|-3-------------|
Will you still love me when I'm no longer young and beaut - i - ful?


 C                     D                 Em7             G
|---------------------|-----------------|-3------------|---------------|
|---------------------|-----------3-----|--------------|---------------|
|-------------0-------|------2----------|--------0-----|---------0-----|
|-------2-------------|-0-------------0-|----2---------|----0----------|
|-3-----------------3-|-----------------|--------------|-------------2-|
|---------------------|-----------------|-0----------2-|-3-------------|
Will you still love me when I got nothing but my aching soul? I know you


 C                        D                        Em7                      G
|-------------0----------|-------------2----------|-------------3----------|-------------3----------|
|----------1-----1-------|-------3--------3-------|----------3-----3-------|----------3-----3-------|
|-------0-----------0----|----2-----2--------2----|-------0-----------0----|-------0-----------0----|
|----2-----------------2-|-0--------------------0-|----2-----------------2-|----0-----------------0-|
|-3----------------------|------------------------|------------------------|------------------------|
|------------------------|------------------------|-0----------------------|-3----------------------|
 will      I know  you     will    I know that you  wi   -   i   -   i   -   ill      
Will you still


 C                        D                        Em7                      G
|-------------0----------|-------------2----------|-------------3----------|-------------3----------|
|----------1-----1-------|-------3--------3-------|----------3-----3-------|----------3-----3-------|
|-------0-----------0----|----2-----2--------2----|-------0-----------0----|-------0-----------0----|
|----2-----------------2-|-0--------------------0-|----2-----------------2-|----0-----------------0-|
|-3----------------------|------------------------|------------------------|------------------------|
|------------------------|------------------------|-0----------------------|-3----------------------|
 love me  when I'm no     longer   beaut    -    i    -    ful?                     Will 
you still


 C                        D                        Em7                      G
|-------------0----------|-------------2----------|-------------3----------|-------------3----------|
|----------1-----1-------|-------3--------3-------|----------3-----3-------|----------3-----3-------|
|-------0-----------0----|----2-----2--------2----|-------0-----------0----|-------0-----------0----|
|----2-----------------2-|-0--------------------0-|----2-----------------2-|----0-----------------0-|
|-3----------------------|------------------------|------------------------|------------------------|
|------------------------|------------------------|-0----------------------|-3----------------------|
 love me  when I'm no     longer   beaut    -    i    -    ful?                     Will 
you still


 C                        D                        Em7                      G
|-------------0----------|-------------2----------|-------------3----------|-------------3----------|
|----------1-----1-------|-------3--------3-------|----------3-----3-------|----------3-----3-------|
|-------0-----------0----|----2-----2--------2----|-------0-----------0----|-------0-----------0----|
|----2-----------------2-|-0--------------------0-|----2-----------------2-|----0-----------------0-|
|-3----------------------|------------------------|------------------------|------------------------|
|------------------------|------------------------|-0----------------------|-3----------------------|
 love me  when I'm no     longer   beaut    -    i    -    ful?                     Will 
you still


 C                   D                 Em7
|-------------------|------2----------|-3-----------|
|-----------------1-|-----------3-----|-3-----------|
|-------------0-----|---------------2-|-0-----------|
|-------2-----------|-0---------------|-------------|
|-3-----------------|-----------------|-------------|
|-------------------|-----------------|-0-----------|
 love me when I'm no longer beaut - i - f - ul
Suggest correction
Give kudos to tab author, rate the tab!
1 2 3 4 5
comments
print report bad tab
guest
You may want to rate the tab now too:
select rating
Wanna post a correction for this tab? Suggest correction