Oops, an error
Loading. Please wait.

Excuses Tab

8,701 views 3 this week
4 commentsread comments
1 2 3 4 5
x 4
add to favorites
launch autoscroll
font size
0
reset
how to read this tab
guitar tuner
Autoscroll
slow
fast
+/-
esc
set tempo
stop
Help us to improve Ultimate-Guitar.com Take our survey!
×
Difficulty
novice
-------------------------------------------------------------------------------
                             EXCUSES - The Morning Benders
-------------------------------------------------------------------------------
Tabbed by: Does it matter?
Email: No.

Tuning: Standard

The chords posted elsewhere are correct (F, Dm, Gm, C through the whole song), but I've 
the violin theme stuck in my head all day. So here it is:

Intro:
e|--------------------------12--10----------|
B|-13-(let ring)--------------------10------|
G|------------------------------------------|
D|------------------------------------------|
A|------------------------------------------|
E|------------------------------------------|

2x:
e|-------------------------12--10-----------|
B|-10-11-13-15-10-----------------10--------|
G|------------------------------------------|
D|------------------------------------------|
A|------------------------------------------|
E|------------------------------------------|

Right before percussion enters:
e|-12---------15----------------------------|
B|------------------------------------------|
G|------------------------------------------|
D|------------------------------------------|
A|------------------------------------------|
E|------------------------------------------|

Main theme:
e|-13-(long)-13-12-10-------------------------------12-13-|
B|---------------------13-11-10---13-6---10-8-11-13-------|
G|--------------------------------------------------------|
D|--------------------------------------------------------|
A|--------------------------------------------------------|
E|--------------------------------------------------------|

Now go impress your friends.

************************************

| /   slide up
| \   slide down
| h   hammer-on
| p   pull-off
| ~   vibrato
| +   harmonic
| x   Mute note
| b   Bend
| pb  Pre-bend
| br  Bend release
| pbr Pre-bend release
| brb Bend release bend

************************************
Suggest correction
comments
print report bad tab
4 comments total. Showing first comments.
0 reply
troche041 30 Dec 31, 2010 04:54 PM

awesome job, listening to the song it sounds perfect

0 reply
JohnnyDevil 10 Jan 03, 2011 12:56 AM

Right notes, but your fingering choices could use some work. You can play this all at the top of the neck if you don't try to do it all on two strings. For instance, in the main theme, instead of 6th fret on the 5th string try it as 10th fret on the third string so you don't have to move so far and adjust the rest of the notes from there.

0 reply
DrewSalv 10 Oct 06, 2012 03:06 PM

@Johnny Devil

uhh, do you mean the 6th fret on the 2nd string?

and so it would be this? :

Main theme:
e|-13-(long)-13-12-10-------------------------------12-13-|
B|---------------------13-11-10---13-----10-8-11-13------|
G|------------------------------------10------------------|
D|--------------------------------------------------------|
A|--------------------------------------------------------|
E|--------------------------------------------------------|

guest
You may want to rate the tab now too:
select rating
Wanna post a correction for this tab? Suggest correction