Oops, an error
Loading. Please wait.

Only The Lonely Tab

version 1
version 1

Solo

Whole song

2,647 views 3 this week
no commentswrite comment
1 2 3 4 5
3 more votes to show rating
add to favorites
launch autoscroll
font size
0
reset
how to read this tab
guitar tuner
Autoscroll
slow
fast
+/-
esc
set tempo
stop
Help us to improve Ultimate-Guitar.com Take our survey!
×
Author
Difficulty
novice
-------------------------------------------------------------------------------
                             Only the Lonely - The Motels
-------------------------------------------------------------------------------
Tabbed by: tidedragon

Email: tidedragon@yahoo.com

Tabs for solos, See my other tab for the chords of the song.

Guitar Solo 
   G                               Em 

-------------------------10------------------------------------|
-------------------10-12---------------------------------------|
---12-12-12-11-12-----------12-12---12-11-12-11-9-9-----9------|
----------------------------------------------------9-12-------|
----------------------------------------------------------10---|
---------------------------------------------------------------|

      C                                  G

-------------------------------------------10-------10---------|
---------------------------10-12-10--10--12--12-10----12-10----|
------9-9----9-11-12-9---12--------12-------------12--------12-|
---12-----12---------------------------------------------------|
---------------------------------------------------------------|
---------------------------------------------------------------|

Sax Solo
           G                          Em

--------------------------------------10---12-10---------------|
--------------10----12-13-12----12-13------------12------------|
------9-12-12----12-----------12-------------------------------|
---12----------------------------------------------------------|
---------------------------------------------------------------|
---------------------------------------------------------------|

                 C                     G

---------------------------------------15----14----------------|
---12-12(p)10----10-10-10----12-----------------17-15----------|
--------------12----------12-----------------------------------|
---------------------------------------------------------------|
---------------------------------------------------------------|
---------------------------------------------------------------|

Ending Keyboard Riff
G

---12-14----12--17-14----12-----|
---------15-----------15----12--|
--------------------------------|
--------------------------------|
--------------------------------|
--------------------------------|
Repeat and fade
Suggest correction
Give kudos to tab author, rate the tab!
1 2 3 4 5
comments
print report bad tab
guest
You may want to rate the tab now too:
select rating
Wanna post a correction for this tab? Suggest correction