Oops, an error
Loading. Please wait.

Time We Had Bass Tab

version 1
version 1

Whole song

Interactive

1,294 views 1 this week
no commentswrite comment
1 2 3 4 5
please rate
add to favorites
launch autoscroll
font size
0
reset
guitar tuner
Tab Pro tools
  • play this tab
  • loop segment
  • change instrument
  • show fretboard
  • metronome
×
Best way to learn
"Time We Had"
Autoscroll
slow
fast
+/-
esc
set tempo
stop
Contributor
#----------------------------------PLEASE NOTE---------------------------------#
#This file is the author's own work and represents their interpretation of the #
#song. You may only use this file for private study, scholarship, or research. #
#------------------------------------------------------------------------------#

TIME WE HAD (Bassline)
As recorded by The Mother Hips
(From the 1993 Album KISS THE CRYSTAL FLAKE)

Transcribed by Brent Guzik
	

Words and Music by Tim Bluhm

Gtr I (E A D G) - 'Untitled'

 Verse
  Q=107
  C
 4/4
  Gtr I
  E E E. S E Q  E   +E  E E. S E Q  S S
|-----5--5-5----5-|-(5)---5--5-5------5-|
|-----------------|---------------------|
|-3-3--------3----|-----3--------3------|
|-----------------|---------------------|


  S S S S E. S E Q  E   +E  E E. S E Q  S S
|---5-----5--5-5----5-|-(5)---5--5-5------5--|
|---------------------|----------------------|
|-3---3-3--------3----|-----3--------3-------|
|---------------------|----------------------|


  C                                         Am
  S S S S E. S E Q  E   +E  E E. S E Q  E   E  E  E  E  E  Q   E
|---5-----5--5-5----5-|-(5)---5--5-5----5-|----5-----4-----2-----|
|---------------------|-------------------|----------------------|
|-3---3-3--------3----|-----3--------3----|-0-(0)-0-(0)-0-(0)--7-|
|---------------------|-------------------|----------------------|


  G      F          Am                     G      F
   E E E Q  E E E   E  E  E  E  E  Q   E    E E E Q  E E E
|----7------------|----5-----4-----2-----|----7---------------|
|------9----------|----------------------|------9-------------|
|-10-----8--8-7-5-|-0-(0)-0-(0)-0-(0)--7-|-10-----8--8-7-5----|
|-----------------|----------------------|--------------------|


  C
  E E E. S E Q  E   +E  E E. S E Q  S S
|-----5--5-5----5-|-(5)---5--5-5------5-|
|-----------------|---------------------|
|-3-3--------3----|-----3--------3------|
|-----------------|---------------------|


  S S S S E. S E Q  E   +E  E E. S E S S S S S S
|---5-----5--5-5----5-|-(5)---5--5-5-------5-----|
|---------------------|------------------2---2---|
|-3---3-3--------3----|-----3--------3-5-------5-|
|---------------------|--------------------------|


  C                                     Am
  E E E. S E Q  E   +E  E E. S E Q  E   E  E  E  E  E  Q   E
|-----5--5-5----5-|-(5)---5--5-5----5-|----5-----4-----2-----|
|-----------------|-------------------|----------------------|
|-3-3--------3----|-----3--------3----|-0-(0)-0-(0)-0-(0)--7-|
|-----------------|-------------------|----------------------|


  G      F                Am                     G      F
   E E E Q  S S S S S S   E  E  E  E  E  Q   E    E E E Q   E E  E
|----7------------------|----5-----4-----2-----|----7-----------------|
|------9----------------|----------------------|------9----10---10----|
|-10-----8--7-8-7-5-----|-0-(0)-0-(0)-0-(0)--7-|-10-----8---8----8----|
|-------------------8-7-|----------------------|----------------------|


 Chorus
  F          Am        E       F                 Am
   +E  E E E E E E E   E E E E E E E E   E E E E E E E E
|--------------------|-----------------|-----------------|
|-(10)---------------|-----------------|-----------------|
|--(8)-8-7-5-------7-|-------2-------8-|-7-5-----------7-|
|------------5-5-8---|-0-0-4---1-1-1---|-----8-7-5-5-8---|


  E       F                 Am        E       F
  E E E E E E E E   E E E E E E E E   E E E E E E E E
|-----------------|-----------------|------------------|
|-----------------|-----------------|------------------|
|-------2-------8-|-7-5-----------7-|-------2---8-7-5--|
|-0-0-4---1-1-1---|-----8-7-5-5-8---|-0-0-4---1--------|


 Verse
  C
  E E E. S E Q  E   +E  E E. S E Q  S S
|-----5--5-5----5-|-(5)---5--5-5------5-|
|-----------------|---------------------|
|-3-3--------3----|-----3--------3------|
|-----------------|---------------------|


  S S S S E. S E Q  E   +E  E E. S E S S S S S S
|---5-----5--5-5----5-|-(5)---5--5-5---------2---|
|---------------------|------------------2-5---5-|
|-3---3-3--------3----|-----3--------3-5---------|
|---------------------|--------------------------|


  C                                     Am
  E E E. S E Q  E   +E  E E. S E Q  E   E  E  E  E  E  Q   E
|-----5--5-5----5-|-(5)---5--5-5----5-|----5-----4-----2-----|
|-----------------|-------------------|----------------------|
|-3-3--------3----|-----3--------3----|-0-(0)-0-(0)-0-(0)--7-|
|-----------------|-------------------|----------------------|


  G      F                Am                     G      F
   E E E Q  S S S S S S   E  E  E  E  E  Q   E    E E E Q  S S S S S S
|----7------------------|----5-----4-----2-----|----7----------2-5-2---|
|------9----------------|----------------------|------9----2-5-------5-|
|-10-----8--7-8-7-5-----|-0-(0)-0-(0)-0-(0)--7-|-10-----8--------------|
|-------------------8-7-|----------------------|-----------------------|


  C
  E E E. S E Q  E   +E  E E. S E Q  S S
|-----5--5-5----5-|-(5)---5--5-5------5-|
|-----------------|---------------------|
|-3-3--------3----|-----3--------3------|
|-----------------|---------------------|


  S S S S E. S E Q  E   +E  E E. S E Q  S S
|---5-----5--5-5----5-|-(5)---5--5-5------5-|
|---------------------|---------------------|
|-3---3-3--------3----|-----3--------3------|
|---------------------|---------------------|


  C                                     Am
  E E E. S E Q  E   +E  E E. S E Q  E   E  E  E  E  E  Q   E
|-----5--5-5----5-|-(5)---5--5-5----5-|----5-----4-----2-----|
|-----------------|-------------------|----------------------|
|-3-3--------3----|-----3--------3----|-0-(0)-0-(0)-0-(0)--7-|
|-----------------|-------------------|----------------------|


  G      F                Am                     G      F
   E E E Q  S S S S S S   E  E  E  E  E  Q   E    E E E Q   E E  E
|----7----------2-5-2---|----5-----7-----9-----|----7-----------------|
|------9----2-5-------5-|----------------------|------9----10---10----|
|-10-----8--------------|-0-(0)-0-(0)-0-(0)--7-|-10-----8---8----8----|
|-----------------------|----------------------|----------------------|


 Chorus
  F          Am        E       F                 Am
   +E  E E E E E E E   E E E E E E E E   E E E E E E E E
|--------------------|-----------------|-----------------|
|-(10)---------------|-----------------|-----------------|
|--(8)-8-7-5-------7-|-------2-------8-|-7-5-----------7-|
|------------5-5-8---|-0-0-4---1-1-1---|-----8-7-5-5-8---|


  E       F                 Am        E       F
  E E E E E E E E   E E E E E E E E   E E E E E E E E
|-----------------|-----------------|------------------|
|-----------------|-----------------|------------------|
|-------2-------8-|-7-5-----------7-|-------2---8-7-5--|
|-0-0-4---1-1-1---|-----8-7-5-5-8---|-0-0-4---1--------|


 Bridge
  C
  Q  E. S E Q  E   E E E. S E Q.
|----5------5----|-----5------5----|
|----------------|-----------------|
|-3-----3-3----3-|-3-3----3-3------|
|----------------|-----------------|


  Dm                    Em
  W          W          W          Q  S  S E E  E Q
|----------|----------|----------|---------9-9----9---|
|-7--------|-7--------|-9--------|-9--7-12-----12-----|
|-5--------|-5--------|-7--------|-7------------------|
|----------|----------|----------|--------------------|


  Dm                    Em                   G    F
  W          W          W          E E E E E  E E  E
|----------|----------|----------|-------------------|
|-7--------|-7--------|-9--------|-9-9-9-9---12---10-|
|-5--------|-5--------|-7--------|-7-7-7-7---10----8-|
|----------|----------|----------|-------------------|


 Chorus 3
  F          Am        E       F                 Am        E       F
   +E  E E E E E E E   E E E E E E E E   E E E E E E E E   E E E E E E E E
|--------------------|-----------------|-----------------|-----------------|
|-(10)---------------|-----------------|-----------------|-----------------|
|--(8)-8-7-5-------7-|-------2-------8-|-7-5-----------7-|-------2-------8-|
|------------5-5-8---|-0-0-4---1-1-1---|-----8-7-5-5-8---|-0-0-4---1-1-1---|


  F       Am        E       F                 Am        E       F
  E E E E E E E E   E E E E E E E E   E E E E E E E E   E E E E E E E E
|-----------------|-----------------|-----------------|---------------5-|
|-----------------|-----------------|-----------------|-------------7---|
|-7-5-----------7-|-------2-------8-|-7-5-----------7-|-------2---8-----|
|-----8-7-5-5-8---|-0-0-4---1-1-1---|-----8-7-5-5-8---|-0-0-4---1-------|


 Outro
  C
  E E E. S E Q  E   +E  E E. S E Q  S S   E E E. S E E E E   +Q   H.
|-5---5--5-5----5-|-(5)---5--5-5------5-|-----5--5-5---5-5-|-(5)--------|
|-----------------|---------------------|------------------|------------|
|---3--------3----|-----3--------3------|-3-3--------3-----|------------|
|-----------------|---------------------|------------------|------------|


  C
  E E E. S E Q  E   Q  E S E S E S E.   E Q  S S E E.   E S   E. E S E. E S Q
|-----5--5-5----5-|----5---5---5---5--|---5------5------5-5-|----5-5----5-5----|
|-----------------|-------------------|---------------------|------------------|
|-3-3--------3----|-3----3---3---3----|-3------3---3--------|-3------3------3--|
|-----------------|-------------------|---------------------|------------------|


  C
  +E  E E. S E Q  E   Q  E S E S E S E.   E E E S E S E S S S S   E H..
|-------5--5-5----5-|----5---5---5---5--|-----------------------|----------*|
|-------------------|-------------------|-----5-5-5-5-5-5-5-5-5-|-5--------*|
|-(3)-3--------3----|-3----3---3---3----|-3-3-3-3-3-3-3-3-3-3-3-|-3--------*|
|-------------------|-------------------|-----------------------|----------*|



Duration Legend
---------------
W - whole; H - half; Q - quarter; E - 8th; S - 16th; T - 32nd; X - 64th; a - acciaccatura
+ - note tied to previous; . - note dotted; .. - note double dotted
Uncapitalized letters represent notes that are staccato (1/2 duration)
Irregular groupings are notated above the duration line
Duration letters will always appear directly above the note/fret number it represents the
duration for.  Duration letters with no fret number below them represent rests.  Multi-
bar rests are notated in the form Wxn, where n is the number of bars to rest for.  Low
melody durations appear below the staff

Tablature Legend
----------------
 h   - hammer-on
 p   - pull-off
 b   - bend
 pb  - pre-bend
 r   - bend release (if no number after the r, then release immediately)
 /\  - slide into or out of (from/to "nowhere")
 s   - legato slide
 S   - shift slide
 - natural harmonic
[n]  - artificial harmonic
n(n) - tapped harmonic
 ~   - vibrato
 tr  - trill
 T   - tap
 TP  - trem. picking
 PM  - palm muting
\n/  - tremolo bar dip; n = amount to dip
 \n  - tremolo bar down
 n/  - tremolo bar up
/n\  - tremolo bar inverted dip
 =   - hold bend; also acts as connecting device for hammers/pulls
 <> - volume swell (louder/softer)
 x   - on rhythm slash represents muted slash
 o   - on rhythm slash represents single note slash

Misc Legend
-----------
 |  - bar
||  - double bar
||o - repeat start
o|| - repeat end
*|  - double bar (ending)
 :  - bar (freetime)
 $  - Segno
 &  - Coda
Tempo markers -  = BPM(8/16=s8/s16), where s8 = swing 8ths, s16 = swing 16ths

comments
We did not receive enough feedback on this tab! Please rate:
print report bad tab
1 2 3 4 5
I want to post or [tab]
guest
You may want to rate the tab now too:
select rating
Please do not post tabs as comments. Select "correction" instead!