Oops, an error
Loading. Please wait.

See America Right Chords

9,532 views 24 this week
no commentswrite comment
1 2 3 4 5
excellent!
x 5
add to favorites
launch autoscroll
font size
0
reset
transpose
0
reset
- display chords -
guitar tuner
Tab Pro tools
  • play this tab
  • loop segment
  • change instrument
  • show fretboard
  • metronome
Autoscroll
slow
fast
+/-
esc
set tempo
stop
Contributor
Difficulty
novice
----------------------------------------------------------------------------
                        SEE AMERICA RIGHT - Mountain Goats
----------------------------------------------------------------------------

Tabbed by:  lostpanda
Email:  kylelostpanda@yahoo.com

Tuning:  standard

     Em  Am  C   B
e|---0---0---0--------------------------------------------------------------|
B|---0---1---1---4----------------------------------------------------------|
G|---0---2---0---4----------------------------------------------------------|
D|---2---2---2---4----------------------------------------------------------|
A|---2---0---3---2----------------------------------------------------------|
E|---0----------------------------------------------------------------------|

      Em
I was driving up from Tampa

When the radiator burst

I was three sheets to the wind

A civilian saw me first
    Am
And then there was the cop
                                        Em
And then the children standing on the corner
     C                           B
Your love is like a cyclone in a swamp
                             Em
And the weather's getting warmer

(mute strings and hit 'em)

      Em
I was getting out of jail

Heading to the Greyhound

You said you'd hop on one yourself

And meet me on the way down
      Am
I was shaking way too hard to think
                           Em
Dead on my feet about to drop
           C                          B
Went and got the case of vodka from a car
                                 Em
And walked the two miles to the bus stop

Em
Am  Em
C B Em

    Em
Got on the bus half drunk again

The driver glared at me

Met up with you in Inglis

Thumbed a ride to Cedar Key
        Am
If we never make it back to California
                            Em
I want you to know I love you
       C                                 B
But my love is like a dark cloud full of rain
                                Em
That's always right there up above you

Hey!

Em
Am  Em
C B Em
comments
print report bad tab
I want to post or [tab]
guest
You may want to rate the tab now too:
select rating
Please do not post tabs as comments. Select "correction" instead!