Oops, an error
Loading. Please wait.

Hand Grenade Tab

4,230 views 1 this week
no commentswrite comment
1 2 3 4 5
x 3
add to favorites
launch autoscroll
font size
0
reset
how to read this tab
guitar tuner
×
Best way to learn
"Hand Grenade"
Autoscroll
slow
fast
+/-
esc
set tempo
stop
Author
THE MOVIELIFE - HAND GRENADE
HAS A GAMBLING PROBLEM
TUNING: STANDARD EADGBE
Tabbed By: Lassise



Introduction (X2) & Verse 1(X2): 
YOU DON'T TALK TO ANYONE
|----------------------------------------------------|
|----------------------------------------------------|
|--5-5-5--------------------5-5-5-------8-8-8-8------| X4
|--5-5-5-6-6-6-8-8-8-X-X-8--5-5-5-6-6-6-8-8-8-8------|
|--3-3-3-6-6-6-8-8-8-X-X-8--3-3-3-6-6-6-6-6-6-6------|
|--------4-4-4-6-6-6-X-X-6--------4-4-4--------------| 


Chorus:
AND YOU SAY
|---------------------------------------|
|---------------------------------------|
|---------------------------------------| X3
|--6-6-6-6-6-6-6-6-3-3-3-3-3-3-3-3------|
|--6-6-6-6-6-6-6-6-3-3-3-3-3-3-3-3------|
|--4-4-4-4-4-4-4-4-1-1-1-1-1-1-1-1------|

|-----------------------------------|
|-----------------------------------|
|-----------------------------------| 
|--6-6-6-6-6-6-6-6-8-8-8-8-8-8-8-8--| 
|--6-6-6-6-6-6-6-6-8-8-8-8-8-8-8-8--|
|--4-4-4-4-4-4-4-4-6-6-6-6-6-6-6-6--|


Solo: Guitar 1
|-------------11--------------------------/10-10-10-10-8-10-10p8h10p8h10p8-8b--|
|-------9h11-----11p9\7----------------------------------------------------8b--|
|--8h10-----------------6-8b10-10-10-8-----------------------------------------|
|--------------------------------------10~-------------------------------------|
|------------------------------------------------------------------------------|
|------------------------------------------------------------------------------|

Solo: Guitar 2
|----------------------------------------------------|
|----------------------------------------------------|
|--5-5-5--------------------5-5-5-------8-8-8-8------| X2
|--5-5-5-6-6-6-8-8-8-X-X-8--5-5-5-6-6-6-8-8-8-8------|
|--3-3-3-6-6-6-8-8-8-X-X-8--3-3-3-6-6-6-6-6-6-6------|
|--------4-4-4-6-6-6-X-X-6--------4-4-4--------------| 


Verse 2:
AND I'LL NEVER UNDERSTAND
|----------------------------------------------------|
|----------------------------------------------------|
|--5-5-5--------------------5-5-5-------8-8-8-8------| X2
|--5-5-5-6-6-6-8-8-8-X-X-8--5-5-5-6-6-6-8-8-8-8------|
|--3-3-3-6-6-6-8-8-8-X-X-8--3-3-3-6-6-6-6-6-6-6------|
|--------4-4-4-6-6-6-X-X-6--------4-4-4--------------| 

Chorus:
AND YOU SAY
|---------------------------------------|
|---------------------------------------|
|---------------------------------------| X3
|--6-6-6-6-6-6-6-6-3-3-3-3-3-3-3-3------|
|--6-6-6-6-6-6-6-6-3-3-3-3-3-3-3-3------|
|--4-4-4-4-4-4-4-4-1-1-1-1-1-1-1-1------|

|-----------------------------------|
|-----------------------------------|
|-----------------------------------| 
|--6-6-6-6-6-6-6-6-8-8-8-8-8-8-8-8--| 
|--6-6-6-6-6-6-6-6-8-8-8-8-8-8-8-8--|
|--4-4-4-4-4-4-4-4-6-6-6-6-6-6-6-6--|

Break: Guitar 1
|----------------------3----|
|--------4-----------4---4--|
|----3-3---3-------3--------|
|--5---------5---5----------| X4
|---------------------------|
|---------------------------|

Break: Guitar 2 (comes in after first part is played X2)
I KNOW THAT THERE'S NOT MUCH TO SAY
|---------------------------------------------------------|
|---------------------------------------------------------|
|--8X88X8------------------------8X88X8-------------------|
|--8X88X8--8X88X8--6X66X6-8X88X8-8X88X8-8X88X8-6X66X6--6~-|
|--6X66X6--8X88X8--6X66X6-8X88X8-6X66X6-8X88X8-6X66X6--6~-|
|----------6X66X6--4X44X4-6X66X6--------6X66X6-4X44X4--4~-|  

Verse 3:
YOU DON'T TALK TO ANYONE
|----------------------------------------------------|
|----------------------------------------------------|
|--5-5-5--------------------5-5-5-------8-8-8-8------| X4
|--5-5-5-6-6-6-8-8-8-X-X-8--5-5-5-6-6-6-8-8-8-8------|
|--3-3-3-6-6-6-8-8-8-X-X-8--3-3-3-6-6-6-6-6-6-6------|
|--------4-4-4-6-6-6-X-X-6--------4-4-4--------------| 

Chorus:
AND YOU SAY
|---------------------------------------|
|---------------------------------------|
|---------------------------------------| X3
|--6-6-6-6-6-6-6-6-3-3-3-3-3-3-3-3------|
|--6-6-6-6-6-6-6-6-3-3-3-3-3-3-3-3------|
|--4-4-4-4-4-4-4-4-1-1-1-1-1-1-1-1------|

|-----------------------------------|
|-----------------------------------|
|-----------------------------------| 
|--6-6-6-6-6-6-6-6-8-8-8-8-8-8-8-8--| 
|--6-6-6-6-6-6-6-6-8-8-8-8-8-8-8-8--|
|--4-4-4-4-4-4-4-4-6-6-6-6-6-6-6-6--|


Ending: Guitar 1
I KNOW THAT THERES NOT MUCH TO SAY
|----------------------3----|
|--------4-----------4---4--|
|----3-3---3-------3--------|
|--5---------5---5----------| X4
|---------------------------|
|---------------------------|

Ending: Guitar 2
|----------------------------------|
|----------------------------------|
|--8-8-8-8-------------------------| X4
|--8-8-8-8-8-8-8-8-8-8-8-8-8-8-8-8-|
|--6-6-6-6-8-8-8-8-8-8-8-8-8-8-8-8-|
|----------6-6-6-6-4-4-4-4-4-4-4-4-|

Outro: (On the last time hit G# 2 more times)
LIKE A HAND GRENADE
|------------|
|------------|
|--8~--------| X4
|--8~-8~-6~~-|
|--6~-8~-6~~-|
|-----6~-4~~-|
Suggest correction
Give kudos to tab author, rate the tab!
1 2 3 4 5
comments
print report bad tab
guest
You may want to rate the tab now too:
select rating
Wanna post a correction for this tab? Suggest correction