Oops, an error
Loading. Please wait.

Kelly Song bass

535 views 3 this week
no commentswrite comment
1 2 3 4 5
3 more votes to show rating
add to favorites
×
Save as Personal and add changes to this tab that will be seen only by you. Learn more ›
×
You can save this tab as Personal to edit and correct it or add notes. All changes will be seen only by you. Learn more »
launch autoscroll
font size
0
reset
guitar tuner
edit
Autoscroll
slow
fast
+/-
esc
set tempo
stop
Author
----------------------------------------------------------------------------
			     Kelly Song - The Movielife
----------------------------------------------------------------------------

Tabbed By : Max Guhlke
e-mail: max.guhlke@web.de

Tuning: half step down / Eb, G#, C#, F#

Intro 2x
F#|------------------|
C#|----------2~--4~--|
G#|------2~----------|
Eb|--4~--------------|

Verse 2x
F#|------------------------------------|
C#|------------------------------------|
G#|----------22222222------------------|
Eb|--44444444--------0000000022222222--|

PreChorus 2x				      1x
F#|------------------------------------------|----------|
C#|------------------------------------------|----------|
G#|--2-2-2-22--------------------------------|----------|
Eb|------------2-2-2-22--4-4-4-44--0-0-0-00--|--2(x14)--|

Chorus 3x	 1x
F#|-------------|-------------|
C#|-------------|-------------|
G#|----22-------|-------------|
Eb|--44--00222--|--000022222--|

Bridge 2x
F#|------------------|
C#|----------2~--4~--|
G#|------2~----------|
Eb|--4~--------------|

Verse: 2 Times
Prechorus: 2 Times
Chorus: 2 Times

Solo 2x
F#|------------------------------------|
C#|------------------------------------|
G#|----------22222222------------------|
Eb|--44444444--------2222222200000000--|

Interlude 3x				1x
F#|------------------------------------|--------------------------|
C#|----------22222222------------------|----------22222222--------|
G#|--44444444--------22222222----------|--44444444----------------|
Eb|--------------------------22222222--|------------------2(x16)--|

Chorus: 2 Times

Outro
F#|----------------------------------------------------|
C#|----------------------------------------------------|
G#|----------------------------------------------------|
Eb|--0000000022222222000000002222222200000000-2----0~--|

Great Riffs
Suggest correction
Creating personal tab
Creating personal tab
You can edit any tab online and save it as your Personal.

You can edit, replace or remove any tab part or add personal notes – all changes will be seen only by you.

Personal tabs can be accessed anytime from any device, even offline.
Learn more »
Give kudos to tab author, rate the tab!
1 2 3 4 5
comments
print report bad tab
guest
You may want to rate the tab now too:
select rating
Wanna post a correction for this tab? Suggest correction