Oops, an error
Loading. Please wait.

Bad Dream tab

500 views 1 this week
3 commentsread comments
1 2 3 4 5
x 3
add to favorites
×
Save as Personal and add changes to this tab that will be seen only by you. Learn more ›
×
You can save this tab as Personal to edit and correct it or add notes. All changes will be seen only by you. Learn more »
launch autoscroll
font size
0
reset
how to read this tab
guitar tuner
edit
Autoscroll
slow
fast
+/-
esc
set tempo
stop
The Mowgli's - Bad Dream

Tuning: Half Step Down

INTRO

Electric 1
Eb|--------------------------------------------------------------|
Bb|--------------------------------------------------------------|
Gb|--------------------------------------------------------------|
Db|--------------------------------2-2-2-2-2-2-2-2-2-2-2-2-------| x4
Ab|---------------2-2-2-2-2-2-2-5--------------------------5-5-5-|
Eb|-3-3-3-3-3-3-3------------------------------------------------|

Electric 2
    G Bm5 Em 
Eb|-3-------|
Bb|---------|
Gb|----4----|
Db|----4--2-|
Ab|-2--2--2-|
Eb|-3-----0-|

VERSE P1

Electric 1
Eb|---------------------------------------------------------------|
Bb|---------------------------------------------------------------|
Gb|---------------------------------------------------------------|
Db|---------------------------------2-2-2-2-2-2-2-2-2-2-2-2-------| 
Ab|----------------2-2-2-2-2-2-2-5--------------------------5-5-5-|
Eb|-3-3-3-3-3-3-3-5-----------------------------------------------|

Electric 2
(listen for when to play
    U  D  U  
Eb|-2--2--2-|
Bb|-3--3--3-|
Gb|-2--2--2-|
Db|---------|
Ab|---------|
Eb|---------|

VERSE P2

Electric 1
Eb|--------------------------------------------------------------------------------------------------------|
Bb|--------------------------------------------------------------------------------------------------------|
Gb|--------------------------------------------------------------------------------------------------------|
Db|---------------------------------------------------------------------------------------------2x12-------|
Ab|-----------------2-2-2-2-2-2-2-3-3-3-3-3-3-3-3-3-3-3--2-2-2------------------2-2-2-2-2-2-2-5------5-5-5-|
Eb|-3-3-3-3-3-3-3-5---------------------------------------------3-3-3-3-3-3-3-5----------------------------|

Electric 2
    G Bm5 Em 
Eb|-3-------|
Bb|---------|
Gb|----4----|
Db|----4--2-|
Ab|-2--2--2-|
Eb|-3-----0-|


PRECHORUS

Electric 1+2
    C  D
Eb|----2-|
Bb|-1--3-|
Gb|----2-|
Db|-2----|
Ab|-3----|
Eb|------|


CHORUS

Electric 1
E|---------------------------------------------------------------------------------|
B|---------------------------------------------------------------------------------|
G|----------5--------999999-777777------121212121212--5-121212121212-999999-777777-|
D|-5-xxxxxx-5-xxxxxx-999999-777777----5-x-x-x-x-x-x---5-x-x-x-x-x-x--999999-777777-|
A|-5-xxxxxx-3-xxxxxx-777777-555555----5-101010101010--3-101010101010-777777-555555-|
E|-3-xxxxxx---xxxxxx------------------3--------------------------------------------|

Electric 2
(same strum pattern as E1 just without octaves)
    G  C Em  D   
Eb|-1--------2-|
Bb|----1-----3-|
Gb|----------2-|
Db|----2--2----|
Ab|-2--3--2----|
Eb|-3-----0----|


VERSE P2

VERSE P2

PRECHORUS

CHORUS

BRIDGE

Electric 1
Eb|-------------------------------------------------
Bb|-------------------------------------12----------
Gb|-12----------12----------14----------------------
Db|----14-12h14----14-12h14----14-12h14----12-12h14- x1
Ab|-------------------------------------------------
Eb|-------------------------------------------------

|---------------------------------------------------------------------|
|-----------------10h12-12-12-12-12-12-12-12--10-10-10-10-10-10-10-10-|
|--12----------x2-----------------------------------------------------|
|-----14-12h14--------------------------------------------------------| x3 
|---------------------------------------------------------------------|
|---------------------------------------------------------------------|

(no actual E2 guitar part but the chords are C Em D) 

CHORUS

Outro (play bridge with E2 playing C Em D chords) 
Suggest correction
Creating personal tab
Creating personal tab
You can edit any tab online and save it as your Personal.

You can edit, replace or remove any tab part or add personal notes – all changes will be seen only by you.

Personal tabs can be accessed anytime from any device, even offline.
Learn more »
Give kudos to tab author, rate the tab!
1 2 3 4 5
comments
print report bad tab
3 comments total.
0 reply
joshuacharlesca 12 Jun 13, 2015 08:06 AM

This tab is really good. Only change I would make is in the verse riff, instead of going to 5, go to the next string but just open. Just makes it a little easier to transition

0 reply
lubeboys 10 Feb 08, 2016 06:40 AM

Can't believe you made us play this song for one of our gigs. Absolutely disgusting. Smh.

guest
You may want to rate the tab now too:
select rating
Wanna post a correction for this tab? Suggest correction