Oops, an error
Loading. Please wait.

Carry Your Will intro tab

4,191 views 6 this week
3 commentsread comments
1 2 3 4 5
x 7
add to favorites
×
Save as Personal and add changes to this tab that will be seen only by you. Learn more ›
×
You can save this tab as Personal to edit and correct it or add notes. All changes will be seen only by you. Learn more »
launch autoscroll
font size
0
reset
how to read this tab
guitar tuner
edit
Autoscroll
slow
fast
+/-
esc
set tempo
stop
Difficulty
                             Carry Your Will - The Mowgli's
-------------------------------------------------------------------------------
Tabbed by: big-D330
E-mail:fawcettcustomdesigns@yahoo.com


Ok, this is my first tab so please have a little mercy if it is totally wrong. I would 
love to have someone help me figure out the rest of the song and correct any errors I may 
have made.
Thanks and God bless



Tuning: Standard

e|-----------------------------------------------------------------------------|
B|-----------------------------------------------------------------------------|
G|----0----0---0-----0------0-------0----0-------------------------------------|
D|--5---5--------------0-------0----------------0------------------------------|
A|-----------5----7-------3----------------------------------------------------|
E|---------------------------------3---3-----3---------------------------------|
 
************************************

| /   slide up
| \   slide down
| h   hammer-on
| p   pull-off
| ~   vibrato
| +   harmonic
| x   Mute note
| b   Bend
| pb  Pre-bend
| br  Bend release
| pbr Pre-bend release
| brb Bend release bend

************************************

            
            
Suggest correction
Creating personal tab
Creating personal tab
You can edit any tab online and save it as your Personal.

You can edit, replace or remove any tab part or add personal notes – all changes will be seen only by you.

Personal tabs can be accessed anytime from any device, even offline.
Learn more »
comments
print report bad tab
3 comments total.
0 reply
nuecesu92 10 Sep 30, 2013 01:21 PM

eb|--------------------------------------------------------------------|
Bb|--------------------------------------------------------------------|
Gb|----0----0---0-----0-------0------0---0---0----0---0---0------------|
Db|--5---5----0----------------------------0------------0--------------|
Ab|----------------7-----7------3--------------------------------------|
Eb|-------------------------8------3---3--------3---3------------------|

Also, I believe the over-arching chords are G, C, and Em while tuned a half-step down.

The "let your faith guide your faith part" is accents on the Eb string from 3 slide up to 8 and slide down to open. The chords progress back from that following G to C to Em and the outro is the similar to the outro but finishing on G.

0 reply
logancbragg 10 Jan 04, 2014 12:04 PM, edited at 05:05 pm

Sounds to me like it's in the wrong key... I tried playing along to the song and had to tune my guitar a half step down. Just so you know, it should be entirely half step down. Other than that good tab!!

0 reply
yulizavala22 270 Mar 15, 2014 04:32 PM, edited at 08:32 pm

DUDE! drop it down a step, then its fine

guest
Wanna post a correction for this tab? Suggest correction