Oops, an error
Loading. Please wait.

Im Good tab

1,401 views 1 this week
no commentswrite comment
1 2 3 4 5
x 8
add to favorites
×
Save as Personal and add changes to this tab that will be seen only by you. Learn more ›
×
You can save this tab as Personal to edit and correct it or add notes. All changes will be seen only by you. Learn more »
launch autoscroll
font size
0
reset
how to read this tab
guitar tuner
edit
Autoscroll
slow
fast
+/-
esc
set tempo
stop
Author
Difficulty
The Mowglis: I'm Good

Tuning: Standard

INTRO/CHORUS

Electric 1
(slight palm mute)
E|----------------------------------------------------------|
B|------------------------------------------------------8---|
G|----------9-7-9-7--------9-9-9-9-7-9-7----9-9-9-9-7-9---9-|
D|-10-10-10---------7--x2----------------7------------------|
A|----------------------------------------------------------|
E|----------------------------------------------------------|


Electric 2
E|-8------12-----10-----12----|
B|-10-x4--13-x4--12-x4--13-x4-|
G|-10-----12-----12-----12----|
D|----------------------------|
A|----------------------------|
E|----------------------------|

VERSE

(play intro faintly)

CHORUS

Electric 1
(slight palm mute)
E|----------------------------------------------------------|
B|------------------------------------------------------8---|
G|----------9-7-9-7--------9-9-9-9-7-9-7----9-9-9-9-7-9---9-|
D|-10-10-10---------7--x2----------------7------------------|
A|----------------------------------------------------------|
E|----------------------------------------------------------|


Electric 2
E|-8------12-----10-----12----|
B|-10-x4--13-x4--12-x4--13-x4-|
G|-10-----12-----12-----12----|
D|----------------------------|
A|----------------------------|
E|----------------------------|


VERSE

BRIDGE

(play verse then cut out for just piano)

CHORUS

            
            
Suggest correction
Creating personal tab
Creating personal tab
You can edit any tab online and save it as your Personal.

You can edit, replace or remove any tab part or add personal notes – all changes will be seen only by you.

Personal tabs can be accessed anytime from any device, even offline.
Learn more »
comments
print report bad tab
guest
You may want to rate the tab now too:
select rating
Wanna post a correction for this tab? Suggest correction