Oops, an error
Loading. Please wait.

Can You Picture That Bass Tab

2,618 views 6 this week
no commentswrite comment
1 2 3 4 5
please rate
add to favorites
launch autoscroll
font size
0
reset
guitar tuner
Tab Pro tools
  • play this tab
  • loop segment
  • change instrument
  • show fretboard
  • metronome
×
Best way to learn
"Can You Picture That"
Autoscroll
slow
fast
+/-
esc
set tempo
stop
Contributor
Difficulty
intermediate

-----------------------------------------------------------------------------
                       CAN YOU PICTURE THAT?             THE MUPPETS
-----------------------------------------------------------------------------

Tabbed by:hurricaneherman
Tuning Standard

This song sounded fun to play on the bass, so I tabbed it.
Can you picture that? ;)
NOTE: The lyrics do not line up, so don't use them as exact guidelines.

~INTRO~

G|--------------------------------|
D|--------------------------------|
A|3-----1-------------------------|X[2]
E|----------3---1-----------1h2/3-|

~VERSE 1~

G|--------------------------5-3-0---------------------------------|
D|------------------------------------5-------5-------5-------5---|
A|3-------3-------3-------3-------3-------3-------3-------3-----3-|
E|----3-------3-------3-------------------------------------------|
Everybody's lover everybody's brother I wanna be your lifetime friend
Crazy as a rocket nothing in my pocket I keep it at the rainbows end

G|------------------5-3-0-----------------------------------------|
D|3-------3-------3-------3-----------5-------5-------------------|
A|----3-------3---------------8\--3-------3-------1-2-3---1-2-3---|
E|----------------------------------------------------------------|
I never think of money I think of milk 'n honey grinning like a Cheshire cat
I focus on the pleasure Something I can treasure | can you picture that |X[2]

~INTERLUDE~

Play intro riff.

~VERSE 2~

G|--------------------------5-3-0---------------------------5-0---|
D|------------------------------------5-------5-------5---------2-|
A|3-------3-------3-------3-------3-------3-------3-------3-------|
E|----3-------3-------3-------------------------------------------|
Let me take your picture add it to the mixture there it is I got you now
Really nothing to it anyone can do it it's easy and we all know how

G|------------------5-3-0-----------------------------------------|
D|3-------3-------3-----------3-------5-------5-------------------|
A|----3-------3-----------3-------3-------3-------1-2-3---1-2-3---|
E|----------------------------------------------------------------|
Now begins the changing mental rearranging nothing's really where it's at
Now the Eiffel Tower's holding up a flower I gave it to a Texas cat

~CHORUS~

G|----------------------------------------------2-----------------|
D|--------7---------------7---7-5-3-------3--3h4--3-------3---3---|
A|0---7-------7---0---7---------------3---------------3---------3-|
E|----------------------------------------------------------------|
         Fact is there's nothing out there you can't do
             Yeah even Santa Claus believes in you

G|----------------------------------------------------------------|
D|--------7---------------7---7-5-3-------------------------------|
A|0---7-------7---0---7-------------------2-------1-2-3---1-2-3---|
E|----------------------------------------------------------------|
          Beat down the walls believe begin behold begat
Be a better drummer be an up and comer | can you picture that |X[2]

~INTERLUDE~

  Repeat.

~VERSE 3~

G|--------------------------5-3-0---------------------------5-0---|
D|-------------------------5----------5-------5-------5----5----2-|
A|3-------3-------3-------3-------3-------3-------3-------3-------|
E|----3-------3-------3-------------------------------------------|
All of us are wining picking and a grinning Lordy but I love to jam
jelly-belly giggling dancing and a wiggling honey that's the way I am

G|------------------5-3-0-----------------------------------------|
D|3-------3-------3-----------3-----------------------------------|
A|----3-------3-----------3-------3-------3-------1-2-3---1-2-3---|
E|------------------------------------3-------3-------------------|
Lost my heart in Texas northern lights affect us I keep it underneath my hat
Aurora Borealis Shinning down on Dallas | can you picture that |X[2]

~OUTRO~

G|------------------------5-----------------------3---5--57--78-5-|
D|------------5-------5--5--5---5-3-------3---3-4-----------------|
A|3-------3--3----3------------3-------3--------------------------|
E|----3-----------------------------------------------------------|
         Can you picture you gotta see it in your mind
     Can you picture you know it's quick and easy to find

G|-------5p3--3-5-------------5-----------------------------------|
D|----5-----5---------22-255-5----3-------3-----------------------|
A|3---------------33-3----------------2-------2\--1-2-3---1-2-3---|
E|----------------------------------------------------------------|
          Can you picture you don't have to buy a frame
           Can you picture | can you picture that |X[2]

G|----------------------------------------------------------------|
D|----------------------------------------------------------------|
A|1--/--6-1-2-3---------------------------------------------------|
E|----------------1--(let ring)-----------------------------------|
 Use it if you need it don't forget to feed it can you picture that

=============================================================================
h = hammer on
p = pull off
/ = slide up
\ = slide down

I hope you enjoyed this tab, and that it was easy to follow. If you did enjoy
it, a rating would be deeply appreciated. Thanks.

Peace, Love, I'm out.
comments
We did not receive enough feedback on this tab! Please rate:
print report bad tab
1 2 3 4 5
I want to post or [tab]
guest
You may want to rate the tab now too:
select rating
Please do not post tabs as comments. Select "correction" instead!