Oops, an error
Loading. Please wait.

The Muppets Show Theme tab

916 views 24 this week
1 commentread comment
1 2 3 4 5
x 3
add to favorites
×
Save as Personal and add changes to this tab that will be seen only by you. Learn more ›
×
You can save this tab as Personal to edit and correct it or add notes. All changes will be seen only by you. Learn more »
launch autoscroll
font size
0
reset
how to read this tab
guitar tuner
edit
Autoscroll
slow
fast
+/-
esc
set tempo
stop
About this tab version
No one else has tabbed a good version of the original theme, and I thought an exact tab was needed. Was this info helpful? Yes No
Written By Sam Pottle and Jim Henson in 1976
Tabbed by Simone Alexander
Based on the Season One Version

e|-------------------------------------------------------|
B|-------------------------------------------------------|
G|--0-0----------------0-0-------------------------------|
D|-------2-4-2-4-0--------2-4-2-0------------------------|
A|-------------------------------------------------------|
E|-------------------------------------------------------|

e|--------------------------------------------------------|
B|--------------------------------------------------------|
G|--------------------------------------------------------|
D|------0-------5-------0--------5---------0--2--4--------|
A|--2-2---3-2-3----2-2----3-2-3----2-2-2-2----------------|
E|--------------------------------------------------------|

e|-------------------------------------------------------------------|
B|-------------------------------------------------------------------|
G|-------------------------------------------------------------------|
D|--5-7-5-4-7-5-0-5-7-5-4-7-5--5-7-5-4-7-9-0-0--0-2-2-4-5-7----------|
A|-------------------------------------------------------------------|
E|-------------------------------------------------------------------|


            
            
Suggest correction
Creating personal tab
Creating personal tab
You can edit any tab online and save it as your Personal.

You can edit, replace or remove any tab part or add personal notes – all changes will be seen only by you.

Personal tabs can be accessed anytime from any device, even offline.
Learn more »
Give kudos to tab author, rate the tab!
1 2 3 4 5
comments
print report bad tab
1 comment total.
0 reply
wowguava 10 Apr 25, 2017 11:54 AM

👍

guest
You may want to rate the tab now too:
select rating
Wanna post a correction for this tab? Suggest correction