Oops, an error
Loading. Please wait.

18 Wheels Tab

version 1
version 1

Intro

2,134 views 1 this week
1 commentread comment
1 2 3 4 5
worth learning
x 3
add to favorites
launch autoscroll
font size
0
reset
how to read this tab
guitar tuner
Tab Pro tools
  • play this tab
  • loop segment
  • change instrument
  • show fretboard
  • metronome
Autoscroll
slow
fast
+/-
esc
set tempo
stop
Contributor
Difficulty
novice
I'm not used to tabbing songs, but i think I have this one down-pat.

|---------------------------------------------------------------------------|
|---------------------------------------------------------------------------|
|---------------------------------------------------------------------------|
|---------------------------------------------------------------------------|
|0----0----0----0------3----3----3----3------------------3---2---0---5---0--|
|------------------------------------------1----1----1----------------------|

|---------------------------------------------------------------------------|
|---------------------------------------------------------------------------|
|---------------------------------------------------------------------------|
|---------------------------------------------------------------------------|
|0----0----0----0------3----3----3----3------------------3---2---0---5------|
|------------------------------------------1----1----1----------------------|

Thats it. get the rythm from the song if you need it! It's really simple.
Good luck!
comments
We did not receive enough feedback on this tab! Please rate:
print report bad tab
1 2 3 4 5
1 comment total.
+1 reply
bomb123321 wrote on October 8 2008, 07:16 pm

good tab. i may be wrong, but there are some extra notes in there you didn't tab, and two notes were off though.

|---------------------------------------------------------------------------|
|---------------------------------------------------------------------------|
|---------------------------------------------------------------------------|
|---------------------------------------------------------------------------|
|0----0----0----2------3----3----3----------------------3---2------5---3--|
|-------------------------------------0----1----1----1----------3------------|

I want to post or [tab]
guest
You may want to rate the tab now too:
select rating
Please do not post tabs as comments. Select "correction" instead!