Oops, an error
Loading. Please wait.

Rolling On Chords

604 views 54 this week
no commentswrite comment
1 2 3 4 5
x 5
add to favorites
launch autoscroll
font size
0
reset
transpose
0
reset
display chords
guitar tuner
Autoscroll
slow
fast
+/-
esc
set tempo
stop
Help us to improve Ultimate-Guitar.com Take our survey!
×
Author
Difficulty
[Intro]
  E                              A
e|---------------------------------4----------------4------------------------|
B|-5-----------------5-----------------7-5------5-----7--7-5-7---------------|
G|----6---4-------6-----6-4-5-6--------------6-------------------------------|
D|------------6-6------------------------------------------------------------|
A|---------------------------------------------------------------------------|
E|---------------------------------------------------------------------------|
  E                              A
e|---------------------------------4----------------4------------------------|
B|-5-----------------5-----------------7-5------5-----7--7-5-7---------------|
G|----6---4-----4-6-----6-4-5-6--------------6-------------------------------|
D|------------6--------------------------------------------------------------|
A|---------------------------------------------------------------------------|
E|---------------------------------------------------------------------------|

[Verse 1]
E                                  
I come from far and wide travelling,
A
across this great divide.
E
Once it has ran the course,
A
I'll be one step closer to the source.

[Chorus]
F#         A                    E
Whether or not I'll be rolling on.
D  A    E
Rolling on.
F#              A
Rolling on till you're long gone.

E A x2

[Verse 2]
E
Please refrain from believing in me,
A
I'll only cause you grief.
E                       A
It's my common courtesy to bother you blatantly.

[Chorus]
F#         A                    E
Whether or not I'll be rolling on
D  A    E
Rolling on.
F#         A                     E
Rolling on till you're long gone
D  A    E
Rolling on.
F#                   A                  E
If this journey ever comes to a stop off
D  A    E
Rolling on
F#                 A           Abm       Db
I'll be forever feeling guilty no matter where I'll be

[Solo]
  E                              A
e|---------------------------------4----------------4------------------------|
B|-5-----------------5-----------------7-5------5-----7--7-5-7---------------|
G|----6---4-----4-6-----6-4------------------6-------------------------------|
D|------------6--------------------------------------------------------------|
A|---------------------------------------------------------------------------|
E|---------------------------------------------------------------------------|
  E                              A
e|---------------------------------4----------------4------------------------|
B|-5-----------------5-----------------7-5------5-----7--7-5-7---------------|
G|----6---4-----4-6-----6-4-5-6--------------6-------------------------------|
D|------------6--------------------------------------------------------------|
A|---------------------------------------------------------------------------|
E|---------------------------------------------------------------------------|

[Chorus]
E
I'm rolling, rolling on,
A
Till you're long, long gone.
E
I'm rolling, rolling on,
A
Till you're long gone.
Suggest correction
comments
print report bad tab
guest
You may want to rate the tab now too:
select rating
Wanna post a correction for this tab? Suggest correction