Oops, an error
Loading. Please wait.

Jag Tune bass

266 views 1 this week
no commentswrite comment
1 2 3 4 5
3 more votes to show rating
add to favorites
×
Save as Personal and add changes to this tab that will be seen only by you. Learn more ›
×
You can save this tab as Personal to edit and correct it or add notes. All changes will be seen only by you. Learn more »
launch autoscroll
font size
0
reset
guitar tuner
edit
Autoscroll
slow
fast
+/-
esc
set tempo
stop
Difficulty
-------------------------------------------------------------------------------
			     SONG NAME - Band Name
-------------------------------------------------------------------------------

Tabbed By :Ginjaruto
e-mail: martin_burns24@hotmail.co.uk

Tuning:standard

played when bass kicks in:

G|---------------------------------------------------------------------------|
D|---------------------------------------------------------------------------|
A|--0h5-5h7-7-0h5-5--------0h5-5h7-7-0h5-5-----------------------------------|
E|-------------------3-p0-------------------3-p0-----------------------------|

this just loops until the next change occurs

G|---------------------------------------------------------------------------|
D|---------------------------------------------------------------------------|
A|---7--5--0---------------7--5-0--------------------------------------------|
E|-----------0h3-3-333-0----------0h3-3-333-0--------------------------------|

the last part is when he sings "theres something inside me that keeps tickin on"

G|---------------------------------------------------------------------------|
D|---------------------------------------------------------------------------|
A|---7--5-------77--0h5-5-------77--0h5-5----------7777----------------------|
E|--------3---0-----------3---0-----------3---0------------------------------|


its roughly those 3 combos mixed around in the song, keep tryin and youll be jamming it 
in no time XD this is my first tab btw so feedback wud be appreciated

Cheers guys XD!!!

            
            
Suggest correction
Creating personal tab
Creating personal tab
You can edit any tab online and save it as your Personal.

You can edit, replace or remove any tab part or add personal notes – all changes will be seen only by you.

Personal tabs can be accessed anytime from any device, even offline.
Learn more »
Give kudos to tab author, rate the tab!
1 2 3 4 5
comments
print report bad tab
guest
Wanna post a correction for this tab? Suggest correction