Oops, an error
Loading. Please wait.

A Clean Shot Bass Tab

version 2
version 2

Whole song

67 views 1 this week
no commentswrite comment
1 2 3 4 5
please rate
add to favorites
launch autoscroll
font size
0
reset
guitar tuner
Autoscroll
slow
fast
+/-
esc
set tempo
stop
Help us to improve Ultimate-Guitar.com Take our survey!
×
Author
Difficulty
advanced








       The Myriad -  A Clean Shot (Bass tab)  OFFICIAL


    INTRO
G|--------------------------------------------------------|X 4
D|12-12-10-12--12-10-12--------------10-7--7-7-7----------|
A|-----------------------10-8-7-8-8-----------------------|
E|-------------------------------------------------8-5-5-5|



   PRE-CHORUS
G|-----------------------------------------|  
D|-----------------------------------------|
A|111111111111111-7777777777777------------|
E|------------------------------00000000000|



   CHORUS---fills
G|-------------------------------------------------------------------|X 2
D|------------------10--12-----------------------10----10-12---------|
A|55555555555/10-12--------10-12-10--0000000000-----10-------10-12-10|
E|-------------------------------------------------------------------|



    
G|--------------------------------------------------------|X 4
D|12-12-10-12--12-10-12--------------10-7--7-7-7----------|
A|-----------------------10-8-7-8-8-----------------------|
E|-------------------------------------------------8-5-5-5|


   PRE-CHORUS
G|-----------------------------------------|  
D|-----------------------------------------|
A|111111111111111-7777777777777------------|
E|------------------------------00000000000|



   CHORUS---fills
G|-------------------------------------------------------------------|X 2
D|------------------10--12-----------------------10----10-12---------|
A|55555555555/10-12--------10-12-10--0000000000-----10-------10-12-10|
E|-------------------------------------------------------------------|




   ENDING/BRIDGE
G|---------------------------------------------------------------------------|
D|---------------------------------------------------------------------------|
A|555555555555555-00000000000000-5555555555555-------------------------------|
E|--------------------------------------------5555555555/17-17-17-17-17-17-17|



    ENDING
G|---------------------------------------------------------------------|
D|---------------------------------------------------------------------|
A|5555555555555-0000000000000|--111111111111-777777777777-----------5/0|
E|--------------------------------------------------------00000000-----|

Suggest correction
Give kudos to tab author, rate the tab!
1 2 3 4 5
comments
print report bad tab
guest
You may want to rate the tab now too:
select rating
Please do not post tabs as comments. Select "correction" instead!