Oops, an error
Loading. Please wait.

Polar Bears And Shark Fins Bass Tab

19 views 1 this week
no commentswrite comment
1 2 3 4 5
please rate
add to favorites
launch autoscroll
font size
0
reset
guitar tuner
Tab Pro tools
  • play this tab
  • loop segment
  • change instrument
  • show fretboard
  • metronome
Autoscroll
slow
fast
+/-
esc
set tempo
stop
Contributor
Difficulty
advanced



   Polar Bears And Shark Fins (Bass Tab) OFFICIAL



    INTRO
G|------------------------------------------------------------------------------10-12|
D|-----12-12--12-12-12---------12-12--12-12-12-------12-12--12-12-12------12-10------|
A|2-2-------------------2-2----------------------7-7------------------7-7------------|
E|-----------------------------------------------------------------------------------|




    INTRO
G|--------------------------------------------------------------------|
D|-----12-12--12-12-12-------12-12--12-12-12-------12-12--12-12-12----|
A|2-2-------------------2-2------------------7-7---------------------7|
E|--------------------------------------------------------------------|




   VERSE 1, (DID YOU FORGET TO READ)
G|------------------------------------------------------------------------16-16-1616161616|
D|-----12-12--12-12-12---------12-12--12-12-12-------12-12--12-12-12----------------------|
A|2-2-------------------2-2----------------------7-7------------------7-7-----------------|
E|----------------------------------------------------------------------------------------|



     PRE-CHORUS, (THEY ARE RUNNING)
G|-------------------------------------------------------------------------------------|
D|-----12-12--12-12-12-------12-12--12-12-12-------12-12--12-12-12---------------------|
A|2-2-------------------2-2------------------7-7---------------------7-7--13-10-9-7-5-7|
E|-------------------------------------------------------------------------------------|




    CHORUS, (STILL YOU ROLL ON)
G|------------------------------------------------|
D|------------------------------------------------|
A|---------2------------------------2-------------|
E|3---------------0--------3---------------------0|


     CHORUS, (WOULDN'T IT BE NICE)
G|---------16----------------16-----------16-16------------16-16|
D|--------------------------------------------------------------|
A|14-14-14---------14-14-14--------14-14----------14-14-14------|
E|--------------------------------------------------------------|



   DID YOU FORGET, (SHARKS ARE CREEPING IN)
G|-----------------------------------------------------------------------|
D|-----12-12--12-12-12-------12-12--12-12-12-------12-12--12-12-12-------|
A|2-2-------------------2-2------------------7-7---------------------77\0|
E|-----------------------------------------------------------------------|


   (TIRED OF EATING FISH)
G|16-1616-16-16-161616-16-16-16-16-16-1616-16-16|
D|----------------------------------------------|
A|----------------------------------------------|
E|----------------------------------------------|



      (IN SEARCH OF SOMETHING)
G|-----------------------------------------------------------------|
D|------12-12--12-12-12--------12-12--12-12-12---------------------|
A|2-2-------------------7-7----------------------7-7--13-10-9-7-5-7|
E|-----------------------------------------------------------------|



   CHORUS, (STILL YOU ROLL ON)
G|------------------------------------------------|
D|------------------------------------------------|
A|---------2------------------------2-------------|
E|3---------------0--------3---------------------0|




     CHORUS, (WOULDN'T IT BE NICE)
G|---------16----------------16-----------16-16------------16-16|
D|--------------------------------------------------------------|
A|14-14-14---------14-14-14--------14-14----------14-14-14------|
E|--------------------------------------------------------------|



    ENDING
G|------------------------------------------------------------------------|
D|---------------------------------12-1212------------------------12-12---|
A|14-14-14-14141414-14-14-141414-------------14-14141414--141414--------14|
E|------------------------------------------------------------------------|



comments
We did not receive enough feedback on this tab! Please rate:
print report bad tab
1 2 3 4 5
I want to post or [tab]
guest
You may want to rate the tab now too:
select rating
Please do not post tabs as comments. Select "correction" instead!