Oops, an error
Loading. Please wait.

Stretched Over Bass Tab

26 views 1 this week
no commentswrite comment
1 2 3 4 5
please rate
add to favorites
launch autoscroll
font size
0
reset
guitar tuner
Autoscroll
slow
fast
+/-
esc
set tempo
stop
Help us to improve Ultimate-Guitar.com Take our survey!
×
Author
Difficulty
advanced







   Stretched Over bass(tab)
     

           Intro
G|-------------------------------------------------------|x2
D|-------------------------------------------------------|
A|151515151515151515-----------141414141414141414--------|
E|-------------------88888888---------------------3333333|


    VERSE 1, (HEARTS GROWING DIM)
G|-------------------------------------------------------------------------------|x2
D|-------------------------------------------------------------------------------|
A|151515151515--1010101010----171717--1818181818181-171717-1515151515-1010101010-|
E|-------------------------------------------------------------------------------|



    (BUT THE TIME HAS COME)
G|-------------------------------------------------------|
D|-------------------------------------------------------|
A|-------------------------------------------------------|
E|11-11-11-11-11-11--10-10-10-10-10-10--15-15-15-15-15-15|



       BACK TO INTRO
G|--------------------------------------------------------|
D|--------------------------------------------------------|
A|151515151515151515-----------141414141414141414---------|
E|-------------------88888888---------------------33333333|



    (SHE'S BARELY CLOTHE)
G|----------------------------------------------------------------------------------|X2
D|----------------------------------------------------------------------------------|
A|151515151515--101010101010--171717--1818181818181-171717-15151515-10101010101010--|
E|----------------------------------------------------------------------------------|



     (BUT THE TIME HAS COME)
G|-----------------------------------------------------------------------------|
D|-----------------------------------------------------------------------------|
A|151515151515-----------171717--1818181818181-171717-15151515-----------------|
E|--------------15151515---------------------------------------1515151515151515|



         CHORUS, (all this time we'd meet her)
G|----------------------------------------------------------------|
D|----------------------------------------------------------------|
A|11-11-11-11-11-11-11-11-11-11-------------1313131313131313131313|
E|------------------------------88888888888-----------------------|


      CHORUS, (but the time has come)
G|------------------------------------------------------------------------------|
D|------------------------------------------------------------------------------|
A|11-11-11-11-11-11-11-11-11-11-------------1313131313131313131313--11-11-11-11-|
E|------------------------------88888888888-------------------------------------|


    CHORUS, (and all this time)
G|-----------------------------------------------------------------------------------|
D|-----------------------------------------------------------------------------------|
A|11-11-11-11-11-11-11-11-11-11----------------------------13131313----------13131313|
E|------------------------------88888888888-11-11-11-11-11----------11-11-11---------|



    CHORUS, 
G|-----------------------------------------------------------------------------------|
D|-----------------------------------------------------------------------------------|
A|11-11-11-11-11-11-11-11-11-11----------------------------13131313----------13131313|
E|------------------------------88888888888-11-11-11-11-11----------11-11-11---------|


     ENDING
G|------------------------------------------------------|
D|------------------------------------------------------|
A|15151515151515--------11-11-10-10-1414141414----------|
E|---------------888888-------------------------33333333|
Suggest correction
What's this?
You can suggest a correction to this tab. Community and Mods will review your correction and vote to approve or reject it.
comments
We did not receive enough feedback on this tab! Please rate:
print report bad tab
1 2 3 4 5
guest
You may want to rate the tab now too:
select rating
Please do not post tabs as comments. Select "correction" instead!