Oops, an error
Loading. Please wait.

Warpainting Tab

version 1
version 1

Whole song

3,450 views 3 this week
no commentswrite comment
1 2 3 4 5
1 last vote to show rating
add to favorites
launch autoscroll
font size
0
reset
how to read this tab
guitar tuner
Autoscroll
slow
fast
+/-
esc
set tempo
stop
Help us to improve Ultimate-Guitar.com Take our survey!
×
Author
Difficulty
novice
                                                x1 
e|7---7--7-7--7-7--7-x-x|3---3--3-3--3-3--3-x-x|   
b|7---7--7-7--7-7--7-x-x|3---3--3-3--3-3--3-x-x|   
g|8---8--8-8--8-8--8-x-x|4---4--4-4--4-4--4-x-x|
D|9---9--9-9--9-9--9-x-x|5---5--5-5--5-5--5-x-x|  
A|9---9--9-9--9-9--9-x-x|5---5--5-5--5-5--5-x-x|
E|7---7--7-7--7-7--7-x-x|3---3--3-3--3-3--3-x-x|  
                                                x3  
e|----------------------|----------------------|   
b|----------------------|----------------------|  
g|----4--2--------------|----------------------|
D|-------------------4b-|-4b-4b-4b-4b-4b-4br-2-|   
A|2~--------------2-----|----------------------|
E|----------------------|----------------------|   

e|----------------------|----------------------|   
b|----------------------|----------------------|
g|----------------------|--------------4b------|  
D|----------------------|----------------------|
A|2~--------------------|----------------------|  
E|----------------------|----------------------|   

e|----------------------|----------------------|   
b|----------------------|----------------------|
g|----------------------|----------------------|   
D|----------------------|--------------4b------|  
A|----------------------|----------------------|
E|----------------------|----------------------|   

e|----------------------|----------------------|   
b|----------------------|----------------------|
g|----------------------|----------------------|   
D|----------------------|----------------------|  
A|----------------------|--------------2b------|
E|----------------------|----------------------|

~ - Vibratto
b - Bend
br - Bend & release
x - muted note
Suggest correction
Give kudos to tab author, rate the tab!
1 2 3 4 5
comments
print report bad tab
guest
You may want to rate the tab now too:
select rating
Wanna post a correction for this tab? Suggest correction