Oops, an error
Loading. Please wait.

Young Blood Bass Tab

version 1
version 1

Whole song

Interactive

5,408 views 1 this week
1 commentread comment
1 2 3 4 5
2 more votes to show rating
add to favorites
launch autoscroll
font size
0
reset
guitar tuner
Autoscroll
slow
fast
+/-
esc
set tempo
stop
Help us to improve Ultimate-Guitar.com Take our survey!
×
Author
Difficulty
novice
-----------------------------------------------------------------------------
			     YOUNG BLOOD - The Naked and Famous
-------------------------------------------------------------------------------

e-mail: norwichjoe@hotmail.com

i have no idea if this is right but it sounds pretty good to me,
the chords are probably a bit off but again i think they sound alright so
yea let me know what you think

its pretty much just this riff the whole way through
Tuning: Standard
    B              D#sus2     C#sus2
G|--------------------------------------|
D|--------------------------------------|
A|-----------------6--6-6-6---4-4-4h6---|
E|--9--9--9-9-9-------------------------|

The Naked and Famous:
http://www.myspace.com/thenakedandfamous
http://www.thenakedandfamous.com/
Suggest correction
Give kudos to tab author, rate the tab!
1 2 3 4 5
comments
print report bad tab
1 comment total.
+1 reply
k8mc 391 Jul 16, 2011 11:49 AM

I think you meant:


G|--------------------------------------|
D|--------------------------------------|
A|-----------------6--6-6-6---4-4-4h6---|
E|--7--7--7-7-7-------------------------|

or it's easier to play like this...
G|--------------------------------------|
D|--------------------------------------|
A|--2--2--2-2-2----6--6-6-6---4-4-4h6---|
E|--------------------------------------|

guest
You may want to rate the tab now too:
select rating
Wanna post a correction for this tab? Suggest correction