Oops, an error
Loading. Please wait.

Young Blood Tab

version 1
version 1

Intro

Whole song

Interactive

9,013 views 1 this week
1 commentread comment
1 2 3 4 5
1 last vote to show rating
add to favorites
launch autoscroll
font size
0
reset
how to read this tab
guitar tuner
Autoscroll
slow
fast
+/-
esc
set tempo
stop
Help us to improve Ultimate-Guitar.com Take our survey!
×
Author
Difficulty
novice
It's just the main riff, but in my opinion it sounds more right than the other one ;)
Corrections to: Andrefrings@live.de

|-12--9--12-9-----|-12--9--12-9----------|
|--------------12-|--------------12---9--|
|-----------------|----------------------|
|-----------------|----------------------|
|-----------------|----------------------|
|-----------------|----------------------|
Suggest correction
Give kudos to tab author, rate the tab!
1 2 3 4 5
comments
print report bad tab
1 comment total.
0 reply
delpunk 10 Feb 01, 2013 12:36 AM

The song is played in C# scale, so there's no place for 12th frets on 1st and second strings. There must be 11th ones.
So it plays like this:
|-11--9--11-9-----|-11--9--11-9----------|
|--------------11-|--------------11---9--|
|-----------------|----------------------|
|-----------------|----------------------|
|-----------------|----------------------|
|-----------------|----------------------|

guest
You may want to rate the tab now too:
select rating
Wanna post a correction for this tab? Suggest correction