Oops, an error
Loading. Please wait.

Young Blood Tab

version 1
version 1

Whole song

Interactive

25,029 views 63 this week
2 commentsread comments
1 2 3 4 5
x 3
add to favorites
launch autoscroll
font size
0
reset
how to read this tab
guitar tuner
Autoscroll
slow
fast
+/-
esc
set tempo
stop
Help us to improve Ultimate-Guitar.com Take our survey!
×
Author
Difficulty
novice
As seen at http://www.youtube.com/watch?v=yEu7k3t16mg
and http://www.youtube.com/watch?v=qu41_1kfudY
Tuning: Standard (EADGBe)

Main Riff

e|--11--11-9--9------11--11-9--9----------||
B|--------------9~~--------------11~~9~~--||
G|----------------------------------------||
D|----------------------------------------||
A|----------------------------------------||
E|----------------------------------------||

Background Riff

e|----------------------------------------||
B|----------------------------------------||
G|----------------------------------------||
D|----------------------------------------||
A|--6-6-6-6--4-4-4-4--2-2-2-2--2-2-2-2----||
E|----------------------------------------||

Chords

    D#5      C#5      B5       B5
e|----------------------------------------||
B|----------------------------------------||
G|--8-8-8-8--6-6-6-6--4-4-4-4--4-4-4-4----||
D|--8-8-8-8--6-6-6-6--4-4-4-4--4-4-4-4----||
A|--6-6-6-6--4-4-4-4--2-2-2-2--2-2-2-2----||
E|----------------------------------------||

In my opinion full chords sounds better, this is:

    D#m      C#m      Bm       Bm
e|--6-6-6-6--4-4-4-4--2-2-2-2--2-2-2-2----||
B|--7-7-7-7--5-5-5-5--3-3-3-3--3-3-3-3----||
G|--8-8-8-8--6-6-6-6--4-4-4-4--4-4-4-4----||
D|--8-8-8-8--6-6-6-6--4-4-4-4--4-4-4-4----||
A|--6-6-6-6--4-4-4-4--2-2-2-2--2-2-2-2----||
E|----------------------------------------||

Second Riff (with Delay)

e|----------------------------------------||
B|--11-11--9-9--------11-11--9-9----------||
G|-------------11-11-------------11-11----||
D|----------------------------------------||
A|----------------------------------------||
E|----------------------------------------||

Distorted Riff in quiet part

e|----------------------------------------||
B|----------------------------------------||
G|------6------------------6--------------||
D|--6/8---8------------6/8---8--4~~--2~~--||
A|----------------------------------------||
E|----------------------------------------||
Suggest correction
Give kudos to tab author, rate the tab!
1 2 3 4 5
comments
print report bad tab
2 comments total.
0 reply
inoms8a 30 May 29, 2013 05:07 PM

Aren't the full chords you transcribed supposed to be scripted as minor chords

0 reply
kayko 55 Aug 23, 2013 09:20 AM

they should :) my fault

guest
You may want to rate the tab now too:
select rating
Wanna post a correction for this tab? Suggest correction