Oops, an error
Loading. Please wait.

Young Blood Bass Tab

version 2
version 2

Whole song

Interactive

3,825 views 3 this week
no commentswrite comment
1 2 3 4 5
please rate
add to favorites
launch autoscroll
font size
0
reset
guitar tuner
Autoscroll
slow
fast
+/-
esc
set tempo
stop
Help us to improve Ultimate-Guitar.com Take our survey!
×
Difficulty
novice
Song : Young Blood (2010)
Artist : The Naked and Famous

Tab by : Quentin Leloup
Email : kentin.leloup@hotmail.fr

Standard bass tuning.

Intro  :
    
G|-----------------------------------------------------------------|
D|-----------------------------------------------------------------|
A|-2-2-2-2-2-2-2-------------------2-2-2-2-2-2-2-----------4-4-4-4-|
E|---------------2-2-2-2-2-2-2-2-2---------------2-2-2-2-2---------|

Chorus :

G|-----------------------------------------------------------------|
D|-----------------------------------------------------------------|
A|-2-2-2-2-2-2-2-------------------2-2-2-2-2-2-2-----------4-4-4-4-|
E|---------------2-2-2-2-2-2-2-2-2---------------2-2-2-2-2---------|

G|-----------------------------------------------------------------|
D|-----------------------------------------------------------------|
A|-2-2-2-2-2-2-2-------------------2-2-2-2-2-2-2-6-6-6-6-6-4-4-4-4-|
E|---------------2-2-2-2-2-2-2-2-2---------------------------------|

Verse :

G|---------------------------------|
D|---------------------------------|
A|-2-2-2-2-2-2-2-6-6-6-6-6-4-4-4-4-|
E|---------------------------------|
Suggest correction
Give kudos to tab author, rate the tab!
1 2 3 4 5
comments
print report bad tab
guest
You may want to rate the tab now too:
select rating
Wanna post a correction for this tab? Suggest correction