Oops, an error
Loading. Please wait.

About Today Tab

version 2
version 2

Whole song

Interactive

164,283 views 411 this week
7 commentsread comments
1 2 3 4 5
x 51
add to favorites
launch autoscroll
font size
0
reset
how to read this tab
guitar tuner
Autoscroll
slow
fast
+/-
esc
set tempo
stop
Help us to improve Ultimate-Guitar.com Take our survey!
×
=====================
ARTIST: THE NATIONAL
SONG: ABOUT TODAY
=====================

This isn't exactly what's played on the record as I think there is more
than one guitar, but it's what I play at home..

I find myself adding in extra notes here and there to pad it out a little
and make it sound a fuller, but this is the basics

Listen to the song to get the rhythm and changes between the riffs.



[Riff 1]

   F                 Am                Am                G
e|-3-------0-------|-0---------------|-0---------------|-----------------|
B|------1-------1--|------1--1----1--|------1--1----1--|-0----0--0----0--|
G|----2-------2----|----2-------2----|----2-------2----|----0-------0----|
D|-3-------3-------|-0-------0-------|-0-------0-------|-----------------|
A|-----------------|-----------------|-----------------|-----------------|
E|-----------------|-----------------|-----------------|-3-------3-------|


[Riff 2]

   C                 C                 Em                Em
e|-----------------|-----------------|-----------------|-----------------|
B|-1----1--1----1--|-1----1--1----1--|-0----0--0----0--|-0----0--0----0--|
G|----2-------2----|----2-------2----|----0-------0----|----0-------0----|
D|-----------------|-----------------|-----------------|-----------------|
A|-3-------3-------|-3-------3-------|---------2-------|---------2-------|
E|-----------------|-----------------|-0---------------|-0---------------|


   F                 F                 G                 G
e|-1-------3-------|-1-------0-------|-----------------|-----------------|
B|------1-------1--|------1-------1--|-0----0--0----0--|-0----0--0----0--|
G|----2-------2----|----2-------2----|----0-------0----|----0-------0----|
D|-3-------3-------|-3-------3-------|-----------------|-----------------|
A|-----------------|-----------------|-----------------|-----------------|
E|-----------------|-----------------|-3-------3-------|-3-------3-------|


[Verse 1]

Today you were far away
and I didn't ask you why
What could I say
I was far away
You just walked away
and I just watched you
What could I say


[Chorus]

How close am I to losing you


[Verse 2]

Tonight you just close your eyes
and I just watch you
slip away


[Chorus]

How close am I to losing you


[Verse 3]

Hey, are you awake
Yeah I'm right here
Well can I ask you about today


[Outro]

How close am I to losing you
How close am I to losing
Suggest correction
comments
print report bad tab
7 comments total. Showing first comments.
+4 reply
icantbelieveit 102 May 15, 2010 09:28 AM



Riff 1

F Am Am G
e -3-------0-------|-0---------------|-0---------------|-----------------|
B ------1-------1--|------1--1----1--|------1--1----1--|-0----0--0----0--|
G ----2-------2----|----2-------2----|----2-------2----|----0-------0----|
D -3-------3-------|-----------------|-----------------|-----------------|
A -----------------|-0-------0-------|-0-------0-------|-----------------|
E -----------------|-----------------|-----------------|-3-------3-------|

Riff 2

C C Em Em
e -----------------|-----------------|-----------------|-----------------|
B -1----1--1----1--|-1----1--1----1--|-0----0--0----0--|-0----0--0----0--|
G ----0-------0----|----0-------0----|----0-------0----|----0-------0----|
D -----------------|-----------------|-----------------|-----------------|
A -3-------3-------|-3-------3-------|---------2-------|---------2-------|
E -----------------|-----------------|-0---------------|-0---------------|

F F G G
e -1-------3-------|-1-------0-------|-----------------|-----------------|
B ------1-------1--|------1-------1--|-0----0--0----0--|-0----0--0----0--|
G ----2-------2----|----2-------2----|----0-------0----|----0-------0----|
D -3-------3-------|-3-------3-------|-----------------|-----------------|
A -----------------|-----------------|-----------------|-----------------|
E -----------------|-----------------|-3-------3-------|-3-------3-------|

0 reply
Vinderen 10 Oct 15, 2011 07:45 AM

Thank's so much,

0 reply
faedenot 10 Mar 07, 2013 03:44 PM

I am tone dead, is this song just played 4X riff 1, 1X riff 2 over and over?

guest
You may want to rate the tab now too:
select rating
Wanna post a correction for this tab? Suggest correction