Oops, an error
Loading. Please wait.

Fireproof tab

version 3
version 3

Whole song

1,807 views 18 this week
no commentswrite comment
1 2 3 4 5
x 6
add to favorites
×
Save as Personal and add changes to this tab that will be seen only by you. Learn more ›
×
You can save this tab as Personal to edit and correct it or add notes. All changes will be seen only by you. Learn more »
launch autoscroll
font size
0
reset
how to read this tab
guitar tuner
edit
Autoscroll
slow
fast
+/-
esc
set tempo
stop
-------------------------------------------------------------------------------
                             FIREPROOF - The National
-------------------------------------------------------------------------------
Tabbed by: Kilian de Ridder
E-mail: Kilian.kdr@gmail.com

This is one of my favourite songs by The National, it´s rather easy to learn
and just really beautiful, enjoy.



Tuning:    Standard tuning, capo on 6th fret

Tempo:     116 bpm

Note:      At first it may seem like this isn´t the Rhythm Aaron plays
           but you´ll get it when listening to this cover:
           https://www.youtube.com/watch?v=tmaQyiDbT0g
           If you don´t manage it, these are the note values:
           eighth - sixteenth - eights - sixteenth - sixteenth - sixteenth

Structure: Intro / Verse I / Chorus I / Verse II / Chorus II / Verse III / Chorus III

Tab:
Intro (x2) / Verses I + II (x2) / Verse III (x4):

e|--------0--------0--------0--------0--------0----------------0--------0----|
B|-----1---1-----1--1-----1--1-----1--1-----1--1-------------3--3-----3--3---|
G|----2-----2---2----2---2----2---2----2---0----0---0---0---0----0---0----0--|
D|------------2--------3--------0--------2--------2---3---0--------0---------!
A|--0------------------------------------------------------------------------|
E|---------------------------------------------------------------------------|

 Lyrics for Verses:
I. You keep a lot of secrets      II. You tell me you´re waiting     III. You´re the needle in the hay
   And I keep none                    For someone                         You´re the water at the door
   Wish I could go back               Who isn´t so hopeless               You´re a million miles away
   And keep some                      There´s no one                      Doesn´t matter anymore
                                                                          Jennifer, you are not the only
                                                                          reason
                                                                          My head is boiling and my hands
                                                                          are freezing
                                                                          Jennifer you are not the only one
                                                                          To sit awake until the wild
                                                                          feelings leave you

Chorus I + II + III (x4):

e|-------0--------0--------0--------0--------0----------------0--------0-----|
B|-----1--1-----1--1-----1--1-----1--1-----1--1-------------3--3-----3--3----|
G|----2----2---2----2---2----2---2----2---2----2---2---2---0----0---0----0---|
D|--------------------0--------2--------3--------3---2---0--------0----------|
A|--0--------3---------------------------------------------------------------|
E|---------------------------------------------------------------------------|

 Lyrics for Chorus:
I. You´re fireproof               II. You´re fireproof              III. You´re fireproof
   Nothing breaks your heart          Nothing breaks your heart          Nothing breaks your heart
   You´re fireproof                   You´re fireproof                   You´re fireproof
   It´s just the way you are          How´d you get so far               It´s just the way you are
                                                                         You´re fireproof
                                                                         Nothing breaks your heart
                                                                         You´re fireproof
                                                                         Wish I was that way


            
            
Suggest correction
Creating personal tab
Creating personal tab
You can edit any tab online and save it as your Personal.

You can edit, replace or remove any tab part or add personal notes – all changes will be seen only by you.

Personal tabs can be accessed anytime from any device, even offline.
Learn more »
comments
print report bad tab
guest
You may want to rate the tab now too:
select rating
Wanna post a correction for this tab? Suggest correction