Oops, an error
Loading. Please wait.

Rains Of Castamere Tab

version 1
version 1

Whole song

212,007 views 1,101 this week
16 commentsread comments
1 2 3 4 5
x 83
add to favorites
launch autoscroll
font size
0
reset
how to read this tab
guitar tuner
Autoscroll
slow
fast
+/-
esc
set tempo
stop
Difficulty
Tuning
novice
E A D G B E
Standard tuning


e|----1-----0-----1--3--0-----3--1--0-----0-----5-5---6-3------5--6--3-----6--5--3---------------|
B|-------------------------------------3--------------------------------------------6--5---------|
G|--2-----2-----2-----------2------------------------------5-5-----------5-----------------------|
D|-----------------------------------------------------------------------------------------------|
A|-----------------------------------------------------------------------------------------------|
E|-----------------------------------------------------------------------------------------------|

e|-----1-----0-----1--3--0-----3--1--0-----0-------5---6-3-----5--6--3-----6--5--3---------------|
B|--------------------------------------3-------------------------------------------6--3---------|
G|-2-2-----2-----2-----------2-------------------5-----------5-----------5-----------------------|
D|-----------------------------------------------------------------------------------------------|
A|-----------------------------------------------------------------------------------------------|
E|-----------------------------------------------------------------------------------------------|

e|-----0--1-------1--1-0--------0-1------1--1-0--------0-1-----5--5--3------1-1-----0---1--------|
B|-----------3----------------------3----------------------3------------3---------3--------3-----|
G|--2--------------------2----2----------------------2-------------------------------------------|
D|-----------------------------------------------------------------------------------------------|
A|-----------------------------------------------------------------------------------------------|
E|-----------------------------------------------------------------------------------------------|

e|-----0--1-------5--5--3-------1-1-----5p3-0h1---------|
B|--3--------3-------------3----------3---------3-------|
G|------------------------------------------------------|
D|------------------------------------------------------|
A|------------------------------------------------------|
E|------------------------------------------------------|


************************************

| p  Pull-off
| h  Hammer-on

************************************
Suggest correction
comments
print report bad tab
16 comments total. Showing first comments.
+19 reply
Robb Stark 10 Jun 06, 2013 11:27 PM

Great tab!
But I still hate this song!

+5 reply
OmegaBerserker 10 Jun 09, 2013 06:31 PM

sounds about right...a song of rememberance of a slaughter, its chilling

0 reply
Reyne 10 Apr 24, 2014 03:04 AM

how do i play 5h3 and 0h1 please?

guest
You may want to rate the tab now too:
select rating
Wanna post a correction for this tab? Suggest correction