Oops, an error
Loading. Please wait.

Slipping Husband tab

2,451 views 1 this week
2 commentsread comments
1 2 3 4 5
x 3
add to favorites
×
Save as Personal and add changes to this tab that will be seen only by you. Learn more ›
×
You can save this tab as Personal to edit and correct it or add notes. All changes will be seen only by you. Learn more »
launch autoscroll
font size
0
reset
how to read this tab
guitar tuner
edit
Autoscroll
slow
fast
+/-
esc
set tempo
stop
Author
Difficulty
The National
Song - Slipping Husband
Album - Sad Songs for Dirty Lovers
The National website - www.americanmary.com

Melody played throughout song 

guitar 1
e--12----12----12----12----12----12----12----12---|
b-----13----13----13----13----13----13----13----15|
g-------------------------------------------------|
d-------------------------------------------------|
a-------------------------------------------------|
e-------------------------------------------------|

guitar 2
e-------------------------------------------------|
b--10----10---------------------------------------|
g--------------12----12----10----10---------------|
d--------------------------------------14-15-14-15|
a-------------------------------------------------|
e-------------------------------------------------|

Overlap sounds amazing. I can't get enough of this band. 

            
            
Suggest correction
Creating personal tab
Creating personal tab
You can edit any tab online and save it as your Personal.

You can edit, replace or remove any tab part or add personal notes – all changes will be seen only by you.

Personal tabs can be accessed anytime from any device, even offline.
Learn more »
Give kudos to tab author, rate the tab!
1 2 3 4 5
comments
print report bad tab
2 comments total.
0 reply
guicoelhomelo 10 Oct 02, 2014 02:09 PM

and if you dont have two guitars you can do:

e-----------------------------------------------------------|
b-----------------------------------------------------------|
g---------9------9------9------9------9------9-------9------|
d-----10-----10-----10-----10-----10-----10-----10------0---|
a-12-----12-----10-----10------8------8------7---8---7------|
e-----------------------------------------------------------|

0 reply
guicoelhomelo 10 Oct 02, 2014 02:20 PM

or even this to keep in the right octave:

e--------12-----12-----12-----12-----12-----12------12------|
b-----13-----13-----13-----13-----13-----13-----13-----13---|
g-----------------------------------------------------------|
d-------------------------------------------------------0---|
a-12-----12-----10-----10-----------------------------------|
e-----------------------------13-----13-----12--13--12------|

guest
You may want to rate the tab now too:
select rating
Wanna post a correction for this tab? Suggest correction