Oops, an error
Loading. Please wait.

The Rains Of Castamere tab

version 5
version 5

Whole song

Interactive

3,223 views 90 this week
2 commentsread comments
1 2 3 4 5
x 6
add to favorites
×
Save as Personal and add changes to this tab that will be seen only by you. Learn more ›
×
You can save this tab as Personal to edit and correct it or add notes. All changes will be seen only by you. Learn more »
launch autoscroll
font size
0
reset
how to read this tab
guitar tuner
edit
Autoscroll
slow
fast
+/-
esc
set tempo
stop
About this tab version
It's my own fingerstyle version in Drop D. It's different from any other version. Was this info helpful? Yes No
Song: The Rains of Castamere
Artist: Ramin Djawadi
Album: Game of Thrones (Music From The HBO® Series) Season 2
Tabbed by Shehan Sourjah

Link to my guitar cover: https://www.youtube.com/watch?v=VfQ9ukTB0VQ

PLEASE NOTE: This is in Drop D Tuning (DADGBe). Remember this is fingerstyle, so don't 
use a pick. Make sure to let the bass notes ring.

Link to guitar tab tutorial - https://www.youtube.com/watch?v=L3ICVl7E034


[Verse]

  And who...               that I must...           Only a cat...            That's all the...
e|------------------------|------------------------|------------------------|------------------------|
B|------------------------|------------------------|------------------------|-------------------0-2--|
G|------------------------|------------------------|--2-2--3-0------2--3--0-|--2-3--2--0-------2-----|
D|----3-----2-----3--5--2-|----5--3--2--0--2-------|------------------------|-------------3---2------|
A|--0-----0-----0---------|--0-------------3-------|------------3-3---------|----------------0-------|
D|----0-----------0-------|----0-------------------|--3-------------3-------|----5-------------------|


  In a coat of gold...         A lion still...
e|-----1-----0------1---3---0-|---3---1---0-------0--------|
B|-----3------------3---------|---3-----------3-------1----|
G|-2-2-2---2----2-2-2-2---2---|-2-2-2---2---2---2----0-0---|
D|----------------------------|---------------------2------|
A|----------------------------|-------------------3--------|
D|-----0------------0---------|---0------------------------|


  And mine....             As long and sharp...     yours.
e|----5--6-3----5---6---3-|------5-6---5-----------|------------------------|------------------------|
B|------------------------|----------------8---6---|--3---------------------|------------------------|
G|--5-5-------5---5---5---|----------7---7---7-----|--2---------------------|------------------------|
D|------------------------|------------------------|------------------------|------------------------|
A|------------------------|----------------0-------|------------------------|------------------------|
D|----3---------3---------|--------5---------------|--0---------0-0---------|--0---------0-0---------|


[Chorus]

  And so he..      And so he...     That lord of...  ..mere.
e|----0-1---------|--1-1p0---------|----0-1---------|--1-1p0--------|
B|--------3-------|----------------|--------3-------|---------------|
G|--2-------------|--------2-------|--2-------------|---------------|
D|----------------|----------------|----------------|---------------|
A|----------------|----0------0-0--|----------------|----0----0-0---|
D|----0-----0-0---|----------------|----0-----0-0---|---------------|

  But now...       Weep o'er...     With no..        hear.
e|----0-1---------|--3/5-5---------|----------------|---------------|
B|--------3-------|---------8------|----6-----5---6-|--3------------|
G|--2-----3-------|---------7----7-|--5-----5-------|--2------------|
D|----------------|----------------|----------------|---------------|
A|----1------1-1--|----------------|----------------|---------------|
D|----------------|------5-----5-5-|----3-----2-----|--0------0-0---|

  Yes, now...      weep o'er        and not..        hear.
e|----0-1---------|--3/5-5---------|------3-5-3-0-1-|---------------|
B|--------3-------|---------8------|---6------------|--3------------|
G|--2-----3-------|---------7----7-|--5-------------|--2------------|
D|----------------|----------------|----------------|--0------------|
A|----1------1-1--|----------------|----------------|--0------------|
D|----------------|------5-----5-5-|---3----2-------|--0------------|

Don't forget to rate this tab. Thanks!


************************************

| /  Slide up
| p  pull off

************************************

            
            
Suggest correction
Creating personal tab
Creating personal tab
You can edit any tab online and save it as your Personal.

You can edit, replace or remove any tab part or add personal notes – all changes will be seen only by you.

Personal tabs can be accessed anytime from any device, even offline.
Learn more »
comments
print report bad tab
2 comments total.
0 reply
hasan.sami 10 Sep 01, 2017 11:47 AM

i love this version because it's so much more dark and brutal sounding than the rest

0 reply
xooperz 10 Sep 19, 2017 09:51 AM

Holy shit this is so good. Much more fingerstyl-y and low than the other versions. Seriously an amazing tab. Had to log in just to thank you.

guest
You may want to rate the tab now too:
select rating
Wanna post a correction for this tab? Suggest correction