Oops, an error
Loading. Please wait.

This Is The Last Time Tab

version 1
version 1

Acoustic

Whole song

55,584 views 132 this week
8 commentsread comments
1 2 3 4 5
x 20
add to favorites
launch autoscroll
font size
0
reset
how to read this tab
guitar tuner
Autoscroll
slow
fast
+/-
esc
set tempo
stop
Help us to improve Ultimate-Guitar.com Take our survey!
×
Author
Difficulty
novice
-------------------------------------------------------------------------------
                             THIS IS THE LAST TIME - The National
-------------------------------------------------------------------------------
Tabbed by: SHOTTOMAN

Such an awesome song from Trouble Will Find Me. Tabbed from this great video: 
http://www.youtube.com/watch?feature=player_embedded&v=TdFCD3oXMZo

Tuning: Standard (Capo III)

[Intro/Verses]

e|---------------------------------------------------------------------------|
B|---------------------------------------------------------------------------|
G|---2--2\4/2p0----------------------2--2\4/2p0------------------------------|
D|----------------2--2\4/2p0----------------------2--2\4/2p0-----------------|
A|------------------------------2-------------------------------2------------|
E|---------------------------------------------------------------------------|

Basically pick and/or strum around this pattern until "Jenny I am in trouble.."

[Outro]

          Am           Em*            C             G
e|-----0--------1--------0-------0-------------------------------------------|
B|-----1--------0--------1-------3-------------------------------------------|
G|-----2--------0--------0-------0-------------------------------------------|
D|-----2--------2--------2-------0-------------------------------------------|
A|-----0--------2--------3-------2-------------------------------------------|
E|-----0--------0--------x-------3-------------------------------------------|

Am            Em*
Jenny I am in trouble
C                       G
Can't get these thoughts out of me
Am               Em*
Jenny I'm seeing double
C                 G
I know this changes everything
[X2]

          Am     Em*  C      G
It takes a lot of rain in the cup
          Am     Em*      C       G
It takes a lot of pain to pick me up
          Am     Em*  C      G
It takes a lot of rain in the cup
          Am     Em*      C       G
It takes a lot of pain to pick me up

Am      Em*      C        G
Baby you gave me pain and tears
Am     Em*      C        G
Baby you left me sad and high


************************************

| x  Dead note
| p  Pull-off
| /  Slide up
| \  Slide down

************************************
Suggest correction
comments
print report bad tab
8 comments total. Showing first comments.
+1 reply
Georgenicholas 10 Jun 21, 2013 06:47 PM

the outro is D minor, A minor, F (unbarred) then C but otherwise good tab! The only problem I find is I cant figure out the chords for when they sing the verse starting 'I wont be vacant anymore...'

+6 reply
Festinger 10 Jul 20, 2013 10:46 AM

This song essentially switches between two (implied) chords sequences, starting with:

D / Em / C / C

then at 'this is the last time', it switches to

Am / C / G / G

twice, then back to D / Em / C / C etc...

until the ends which, as Georgenicholas points out, is

Dm / Am / F / C

+2 reply
pieman4545 72 Aug 07, 2013 07:09 AM

The above tab with corrections:

Tuning: Standard (Capo III)

Intro/Verses:
"oh when i lift you up.."
e|---------------------------------------------------------------------------|
B|---------------------------------------------------------------------------|
G|---2--2\4/2p0----------------------2--2\4/2p0------------------------------|
D|----------------2--2\4/2p0----------------------2--2\4/2p0-----------------|
A|------------------------------3-------------------------------3------------|
E|---------------------------------------------------------------------------|

"this is the last time"
e|---------------------------------------------------------------------------|
B|---------------------------------------------------------------------------|
G|---------------------------------------------------------------------------|
D|---2----2/4\2p0---------------------------2---2/4\2p0----------------------|
A|-------------------3----3/5\3p0------------------------3----3/5\3p0--------|
E|---------------------------------3-----------------------------------3-----|

Basically pick and/or strum around this pattern until "Jenny I am in trouble.."

Outro:
Am Em* C G
e|-----0--------1--------0-------0-------------------------------------------|
B|-----1--------0--------1-------3-------------------------------------------|
G|-----2--------0--------0-------0-------------------------------------------|
D|-----2--------2--------2-------0-------------------------------------------|
A|-----0--------2--------3-------2-------------------------------------------|
E|-----0--------0--------x-------3-------------------------------------------|

Dm Em*
Jenny I am in trouble

C c
Can't get these thoughts out of me

Dm Em*
Jenny I'm seeing double

C C
I know this changes everything
[X2]

Dm Em* C C
It takes a lot of rain in the cup

Dm Em* C C
It takes a lot of pain to pick me up

Dm Em* C C
It takes a lot of rain in the cup

Dm Em* C C
It takes a lot of pain to pick me up

Dm Em* C C
Baby you gave me pain and tears

Dm Em* C C
Baby you left me sad and high

guest
You may want to rate the tab now too:
select rating
Wanna post a correction for this tab? Suggest correction