Oops, an error
Loading. Please wait.

Cry Baby Bass Tab

version 2
version 2

Whole song

  • Changed tuning to standard, fixed some of the note... Show more
211 views 3 this week
no commentswrite comment
1 2 3 4 5
3 more votes to show rating
add to favorites
launch autoscroll
font size
0
reset
guitar tuner
Autoscroll
slow
fast
+/-
esc
set tempo
stop
Help us to improve Ultimate-Guitar.com Take our survey!
×
Author
Difficulty
About this tab version
Changed tuning to standard, fixed some of the notes in the chorus, and other places in the song. Was this info helpful? Yes No
First Verse (0:17)

G|---------------------------------------------------------------------------|
D|-------------------------------5-7-7-7/10-10-10-10-------------------------|
A|-7-7-7---------5-5-5-5-5-5-5-5---------------------7-7-7-7-7-7-7-7-7-------|\
E|-------7-7-7-7-------------------------------------------------------------| \
                                                                               x2
G|---------------------------------------------------------------------------| /
D|-------------------------------5-7-7-7-5-5-5-------------------------------|/
A|-7-7-7---------5-5-5-5-5-5-5-5---------------7-7-7-7-7-7-7-7-7-------------|
E|-------7-7-7-7-------------------------------------------------------------|


Pre-Chorus (0:53)

G|---------------------------------------------------------------------------|
D|-------------------------------5-------------------------------------------|
A|-0-0-0-0-0-0-0-0-3-3-3-3-3-5/7---7-7-7-7-7-7-7-7-5-5-5-5-5-5-5-5-----------|
E|---------------------------------------------------------------------------|

G|---------------------------------------------------------------------------|
D|---------------------------------------------------------7-7-5-5-----------|
A|-3-3-3-3-3-3-3-3-7-7-7-7-7-7-7-7-5-5-5-5-5-5-5-5-5-5-5-5-------------------|
E|---------------------------------------------------------------------------|


Chorus (1:11)

G|---------------------------------------------------------------------------|
D|---------------------------------------------------------------------------|
A|-7-------5~--5-5-5---0---3-------------------------------------------------|
E|-----7-----------------------0~--0-0-0-------------------------------------|

G|---------------------------------------------------------------------------|
D|---------------------------------------------------------------------------|
A|-7-------5~--5-5-5---0---3~------------------------------------------------|
E|-----7-----------------------0~-(let it ring)------------------------------|

Second Verse (1:29)

G|---------------------------------------------------------------------------|
D|-------------------------------5-7-7-7/10-10-10-10-------------------------|
A|-7-7-7---------5-5-5-5-5-5-5-5---------------------7-7-7-7-7-7-7-7-7-------|
E|-------7-7-7-7-------------------------------------------------------------| 
                                                                               
G|---------------------------------------------------------------------------| 
D|-------------------------------5-7-7-7-5-5-5-------------------------------|
A|-7-7-7---------5-5-5-5-5-5-5-5---------------7-7-7-7-7-7-7-7-7-------------|
E|-------7-7-7-7-------------------------------------------------------------|

Pre-Chorus (1:47)

G|---------------------------------------------------------------------------|
D|-------------------------------5-------------------------------------------|
A|-0-0-0-0-0-0-0-0-3-3-3-3-3-5/7---7-7-7-7-7-7-7-7-5-5-5-5-5-5-5-5-----------|
E|---------------------------------------------------------------------------|

G|---------------------------------------------------------------------------|
D|------------------------------------------------------/9-7-----------------|
A|-3-3-3-3-3-3-3-3-7-7-7-7-7-7-7-7-5-5-5-5-5-5-5-5-5-5-5-----7---------------|
E|---------------------------------------------------------------------------|

Chorus (2:04)

G|---------------------------------------------------------------------------|
D|---------------------------------------------------------------------------|
A|-7-------5~--5-5-5---0---3-------------------------------------------------|
E|-----7-----------------------0~--0-0-0-------------------------------------|

G|---------------------------------------------------------------------------|
D|---------------------------------------------------------------------------|
A|-7-------5~--5-5-5---0---3~------------------------------------------------|
E|-----7-----------------------0~-(let it ring)------------------------------|

Bridge (2:22)

G|---------------------------------------------------------------------------|
D|---------------------------------------------------------------------------|x2
A|-0~----------3~-----------------------5~-----------------------------------|
E|-------------------------0~------------------------------------------------|

(2:39)

G|---------------------------------------------------------------------------|
D|-------------------------5-------------------------------------------------|x2
A|-0--0--0--0--3--3--3-5/7---7--7--7--7--5--5--5--5--------------------------|
E|---------------------------------------------------------------------------|

G|---------------------------------------------------------------------------|
D|-/7-7-7-7-7-7-7------------------------------------------------------------|
A|---------------------------------------------------------------------------|
E|---------------------------------------------------------------------------|

Break (3:00)

Chorus/Outro (3:08)

G|---------------------------------------------------------------------------|
D|---------------------------------------------------------------------------|x4, last one fades out
A|-7-------5~--5-5-5---0---3-------------------------------------------------|
E|-----7-----------------------0~--0-0-0-------------------------------------|




************************************

| /   Slide up
| ~   Vibrato

************************************
Suggest correction
Give kudos to tab author, rate the tab!
1 2 3 4 5
comments
print report bad tab
guest
You may want to rate the tab now too:
select rating
Wanna post a correction for this tab? Suggest correction