Oops, an error
Loading. Please wait.

Prey tab

version 3
version 3

Whole song

1,288 views 12 this week
1 commentread comment
1 2 3 4 5
1 last vote to show rating
add to favorites
×
Save as Personal and add changes to this tab that will be seen only by you. Learn more ›
×
You can save this tab as Personal to edit and correct it or add notes. All changes will be seen only by you. Learn more »
launch autoscroll
font size
0
reset
how to read this tab
guitar tuner
edit
Autoscroll
slow
fast
+/-
esc
set tempo
stop
Author
-------------------------------------------------------------------------------
                             Prey - The Neighbourhood
-------------------------------------------------------------------------------
Tabbed by:Anthony Gonzalez
E-mail:splidao@hotmail.com
Instagram and Twitter @splidao
Tuning:D Standard (DGCFAD)

e|-7----------9----------7----------5----------7------5----------------------|
B|---8----------8----------7----------7----------7------7--------------------|
G|-----9-(x4)-----9-(x4)-----7-(x4)-----7-(x2)-----7------7------------------|
D|---------------------------------------------------------------------------|Intro
A|---------------------------------------------------------------------------|
E|---------------------------------------------------------------------------|

e|-7----------10----------9----------7----------5----------------------------|
B|---8-----------8----------8----------7--------7----------------------------|
G|-----9-(x4)------9-(x2)-----9-(x2)-----7-(x4)-7----------------------------|
D|---------------------------------------------------------------------------|Intro
A|---------------------------------------------------------------------------|
E|---------------------------------------------------------------------------|

e|-7--7--x--7---7--7----10-9--7----7--7--x--7---5--5--x--7--5----------------|
B|-8--8--x--8---8--8----8--8--8----7--7--x--7---7--7--x--7--7----------------|
G|-9--9--x--9---9--9----9--9--9----7--7--x--7---7--7--x--7--7--(x5)----------|
D|---------------------------------------------------------------------------|Verse 1
A|---------------------------------------------------------------------------|
E|---------------------------------------------------------------------------|

e|-7--7--x--7---7--7----10-9--7----7--7--x--7---5----------------------------|
B|-8--8--x--8---8--8----8--8--8----7--7--x--7---7----------------------------|
G|-9--9--x--9---9--9----9--9--9----7--7--x--7---7----------------------------|
D|---------------------------------------------------------------------------|Verse 1
A|---------------------------------------------------------------------------|
E|---------------------------------------------------------------------------|

e|-3---0---2---2-----0---3---2---2-----3---0---2---2----0---3---2------------|
B|-3---0---3---3-----0---3---3---3-----3---0---3---3----0---3---3------------|
G|-4---0---4---2-----0---4---4---2-----4---0---4---2----0---4---4------------|
D|-5---2---4---0-----2---5---4---0-----5---2---4---0----2---5---4------------|Chorus 1
A|-5---2---2---------2---5---2---------5---2---2--------2---5---2------------|
E|-3---0-------------0---3-------------3---0------------0---3----------------|


e|---------------------------------------------------------------------------|
B|-------------------------------------12--8-------7-------------------------|
G|--------------------------------------------7--7----------7----------------|
D|----------------------------------------------------5--9-------------------|Chorus 1
A|---------------------------------------------------------------------------|Lead Guitar
E|---------------------------------------------------------------------------|


e|-7--7--x--7---7--7----10-9--7----7--7--x--7---5--5--x--7--5----------------|
B|-8--8--x--8---8--8----8--8--8----7--7--x--7---7--7--x--7--7----------------|
G|-9--9--x--9---9--9----9--9--9----7--7--x--7---7--7--x--7--7--(x3)----------|
D|---------------------------------------------------------------------------|Verse 2
A|---------------------------------------------------------------------------|
E|---------------------------------------------------------------------------|

e|-7--7--x--7---7--7----10-9--7----7--7--x--7---5----------------------------|
B|-8--8--x--8---8--8----8--8--8----7--7--x--7---7----------------------------|
G|-9--9--x--9---9--9----9--9--9----7--7--x--7---7----------------------------|
D|---------------------------------------------------------------------------|Verse 2
A|---------------------------------------------------------------------------|
E|---------------------------------------------------------------------------|

e|-3---0---2---2-----0---3---2---2-----3---0---2---2----0---3---2------------|
B|-3---0---3---3-----0---3---3---3-----3---0---3---3----0---3---3------------|
G|-4---0---4---2-----0---4---4---2-----4---0---4---2----0---4---4------------|
D|-5---2---4---0-----2---5---4---0-----5---2---4---0----2---5---4------------|Chorus 2
A|-5---2---2---------2---5---2---------5---2---2--------2---5---2------------|
E|-3---0-------------0---3-------------3---0------------0---3----------------|

e|-------------------------------------------------14------------------------|
B|-------------------------------------12--8---------------------------------|
G|--------------------------------------------7--7-----12--11-----12--11-----|Chorus 2
D|-------------------------------------------------------------9----------9--|Lead Guitar
A|---------------------------------------------------------------------------|
E|---------------------------------------------------------------------------|

e|-5---7---3------5---7---0-----------------------------------------------------|
B|-5---7---3------5---7---0-----------------------------------------------------|
G|-6---7---4------6---7---0-----------------------------------------------------|
D|-7---9---5------7---9---2-----------------------------------------------------|Bridge
A|-7---9---5------7---9---2---(x2)----------------------------------------------|
E|-5---7---3------5---7---0-----------------------------------------------------|

e|-------14--------------------------12-10-----------------------------------|
B|-14-10------14-10-----14-10----------------14-10---------------------------|
G|------------------9---------11--12---------------9-------------------------|
D|---------------------------------------------------------------------------|Bridge
A|---------------------------------------------------------------------------|Lead Guitar
E|---------------------------------------------------------------------------|

e|-3---0---2---2-----0---3---2---2-----3---0---2---2----0---3---2---2----0---3---2---|
B|-3---0---3---3-----0---3---3---3-----3---0---3---3----0---3---3---3----0---3---3---|
G|-4---0---4---2-----0---4---4---2-----4---0---4---2----0---4---4---2----0---4---4---|
D|-5---2---4---0-----2---5---4---0-----5---2---4---0----2---5---4---0----2---5---4---|Chorus 3
A|-5---2---2---------2---5---2---------5---2---2--------2---5---2--------2---5---2---|
E|-3---0-------------0---3-------------3---0------------0---3------------0---3-------|

e|-5-----5-----5-----7-------------------------------------------------------|
B|---7-----7-----7-----7-----------------------------------------------------|
G|-----7-----7-----7-----7---------------------------------------------------|
D|---------------------------------------------------------------------------|Chorus 3
A|---------------------------------------------------------------------------|Lead Guitar
E|---------------------------------------------------------------------------|

e|-------------------------------------------------14------------------------|
B|-------------------------------------12--8---------------------------------|
G|--------------------------------------------7--7-----12--11-----12--11-----|Chorus 3
D|-------------------------------------------------------------9-----------9-|Lead Guitar
A|---------------------------------------------------------------------------|
E|---------------------------------------------------------------------------|

e|-7--7--x--7---7--7----10-9--7----7--7--x--7---5--5--x--7--5----------------|
B|-8--8--x--8---8--8----8--8--8----7--7--x--7---7--7--x--7--7----------------|
G|-9--9--x--9---9--9----9--9--9----7--7--x--7---7--7--x--7--7--(x3)----------|
D|---------------------------------------------------------------------------|Verse 3
A|---------------------------------------------------------------------------|
E|---------------------------------------------------------------------------|

e|-7--7--x--7---7--7----10-9--7----7--7--x--7---5----------------------------|
B|-8--8--x--8---8--8----8--8--8----7--7--x--7---7----------------------------|
G|-9--9--x--9---9--9----9--9--9----7--7--x--7---7----------------------------|
D|---------------------------------------------------------------------------|Verse 3
A|---------------------------------------------------------------------------|
E|---------------------------------------------------------------------------|

e|-3---0---------------------------------------------------------------------|
B|-3---0---------------------------------------------------------------------|
G|-4---0---------------------------------------------------------------------|
D|-5---2---------------------------------------------------------------------|Outro
A|-5---2--(x4)---------------------------------------------------------------|
E|-3---0---------------------------------------------------------------------|



************************************

| /   slide up
| \   slide down
| h   hammer-on
| p   pull-off
| ~   vibrato
| +   harmonic
| x   Mute note
| b   Bend
| pb  Pre-bend
| br  Bend release
| pbr Pre-bend release
| brb Bend release bend

************************************

            
            
Suggest correction
Creating personal tab
Creating personal tab
You can edit any tab online and save it as your Personal.

You can edit, replace or remove any tab part or add personal notes – all changes will be seen only by you.

Personal tabs can be accessed anytime from any device, even offline.
Learn more »
Give kudos to tab author, rate the tab!
1 2 3 4 5
comments
print report bad tab
1 comment total.
0 reply
nicimisri 10 Jan 03, 2016 12:29 PM

Amazing tab thanks for putting it up but for the intro shouldn't it be like this with a 10 instead of 9?

e|-7----------10----------7----------5----------7------5----------------------|
B|---8----------8----------7----------7----------7------7--------------------|
G|-----9-(x4)-----9-(x4)-----7-(x4)-----7-(x2)-----7------7------------------|
D|---------------------------------------------------------------------------|Intro

guest
You may want to rate the tab now too:
select rating
Wanna post a correction for this tab? Suggest correction