Oops, an error
Loading. Please wait.

Prey tab

version 4
version 4

Whole song

2,176 views 57 this week
1 commentread comment
1 2 3 4 5
x 9
add to favorites
×
Save as Personal and add changes to this tab that will be seen only by you. Learn more ›
×
You can save this tab as Personal to edit and correct it or add notes. All changes will be seen only by you. Learn more »
launch autoscroll
font size
0
reset
how to read this tab
guitar tuner
edit
Autoscroll
slow
fast
+/-
esc
set tempo
stop
Author
Difficulty
-------------------------------------------------------------------------------
                             PREY - THE NEIGHBOURHOOD
-------------------------------------------------------------------------------
Tabbed by: Dale 

Tuning: Standard

First tab uploaded to here, hope you enjoy!!

Intro

e|-----5-----5------5-----5-----7-----7-----7-----7-----5-----5----5-----5---------------|
B|-------6-----6------5-----5-----8-----8-----8-----8-----6-----6----5-----5-------------|
G|---------7-----7------5-----5-----7-----7-----7-----7-----7----7-----5-----5-----------|
D|---------------------------------------------------------------------------------------|
A|---------------------------------------------------------------------------------------|
E|---------------------------------------------------------------------------------------|

e|-----3-----3-----5-----3---------|
B|-------5-----5-----5-----5-------|
G|---------5-----5-----5-----5-----|   x 2
D|---------------------------------|
A|---------------------------------|
E|---------------------------------|

Main Riff (Verse) 

This sounds best when picked, though can be strummed.

Play this during the verse.

e|---5---5-----5---5---------5-------8---7---5-----5---5--------5---3---3----------3-------|
B|---6---6-----6---6---------6-------6---6---6-----5---5--------5---5---5----------5-------|
G|---7---7-----7---7------7----------7---7---7-----5---5--------5---5---5----------5-------|
D|-----------------------------------------------------------------------------------------|
A|-----------------------------------------------------------------------------------------|
E|-----------------------------------------------------------------------------------------|


(Intro)


Dm  Am  C


[Verse 1] - MAIN RIFF HERE
   Dm
As long as you notice
    Am             C                   Dm
I'm hoping that you'll keep your heart open
                    Am     C
I'll keep mine open too
       Dm
If you don't ask, I won't tell
     Am              C
Just know that, just know that
   Dm             Am                G (single strum)
It all hurts, it all hurts just the same


[Hook]
F             Dm                 Am
Something is wrong, I can't explain
                            C
Everything changed when the birds came
Dm           F                    Am                       C
You'll never know what they might do if they catch you too early
F           Dm                  Am                    C
We need to fly ourselves before someone else tells us how
Dm           F                 Am               Am (single strum)
Something is off, I feel like prey, I feel like praying


[Verse 2] - MAIN RIFF HERE
   Dm
As long as you notice
    Am             C                   Dm
I'm hoping that you'll keep your heart open
                    Am     C
I'll keep mine open too
Dm                    Am
So, so, I'll probably take you aside
             C
And tell you what's on my mind
    Dm
But you, you'll just keep it inside
         Am                    G
Probably tell me that you're alright


[Hook]
F            Dm                  Am
Something is wrong, I can't explain
                            C
Everything changed when the birds came
Dm           F                    Am                       C
You'll never know what they might do if they catch you too early
F           Dm                  Am                    C
We need to fly ourselves before someone else tells us how
Dm           F                 Am               Am
Something is off, I feel like prey, I feel like praying


[Bridge]
G  Am F
(If I run) If I run away I'll never know
G     Am  Dm
(What you want) And if you go then I’ll never grow
G   Am F
(I'm undone) Let me slip, let me slide
G   Am  Dm
(If you run) I'll be sure to let you fly


[Hook]
F            Dm                Am
Something is off, I can't explain
                        C
You know what I mean, don't you?
Dm            F                 Am             
Something I saw, or something I did that made me like this
          C
Could you help me?
F          Dm                   Am                    C
We need to fly ourselves before someone else tells us how
Dm           F                 Am                        C
Something is off, I feel like prey, I feel like praying
Dm           F                 Am
Something is off, I feel like prey, I feel like praying


Dm                    Am
So, so, I'll probably take you aside
             C
And tell you what's on my mind
    Dm
But you, you'll just keep it inside
         Am                    G
Probably tell me that you're alright
Dm                    Am
So, so, I'll probably take you aside
             C
And tell you what's on my mind
    Dm
But you, you'll just keep it inside
         Am                    G (single strum)
Probably tell me that you're alright


(Outro) - single strums
                F       Dm
I don't want to fight
                F       Dm
I don't want to fight
                F       Dm
I don't want to fight
                F       Dm (End)
I don't want to fight



************************************

| /   slide up
| \   slide down
| h   hammer-on
| p   pull-off
| ~   vibrato
| +   harmonic
| x   Mute note
| b   Bend
| pb  Pre-bend
| br  Bend release
| pbr Pre-bend release
| brb Bend release bend

************************************

            
            
Suggest correction
Creating personal tab
Creating personal tab
You can edit any tab online and save it as your Personal.

You can edit, replace or remove any tab part or add personal notes – all changes will be seen only by you.

Personal tabs can be accessed anytime from any device, even offline.
Learn more »
comments
print report bad tab
1 comment total.
0 reply
Mjchiaravallotti 10 Apr 11, 2017 12:51 AM

Great job!

guest
You may want to rate the tab now too:
select rating
Wanna post a correction for this tab? Suggest correction