Oops, an error
Loading. Please wait.

Warm Tab

169 views 15 this week
no commentswrite comment
1 2 3 4 5
3 more votes to show rating
add to favorites
launch autoscroll
font size
0
reset
how to read this tab
guitar tuner
Autoscroll
slow
fast
+/-
esc
set tempo
stop
Help us to improve Ultimate-Guitar.com Take our survey!
×
Author
Difficulty
Capo
intermediate
2nd fret
This is my first time trying to tab a song, so this tab is as accurate as it sounds to my ears at least. So I
am very much looking forward to any changes and suggestions if there are any. Looking for something on chorus 
(see note on chorus) in particular. Hopefully people like this one though! Cheers.

This song is only tabbed to a certain section at the end of Jesse's parts, and does not include Raury's rap
section.

Played with a capo on the second fret.

[Intro]

e|--0--5-----2--3--0--5-----2--3--0--5-----2--3----7--5----------------------|
B|---------------------------------------------------------------------------|
G|---------------------------------------------------------------------------|
D|---------------------------------------------------------------------------|
A|---------------------------------------------------------------------------|
E|---------------------------------------------------------------------------|

"You need to get off my mind..."

[Verse]

e|--0-0-0----0-0-0----0-0-0----0-0-0----0-0-0----0-0-0---------------0-0-0-0-|
B|--------------------------------------------------------4-4-4-4------------|
G|---------------------------------------------------------------------------|
D|--2-2-2----2-2-2----2-2-2----2-2-2----2-2-2----2-2-2----1-1-1-1----2-2-2-2-|
A|---------------------------------------------------------------------------|
E|---------------------------------------------------------------------------|


[Chorus]

"I tried you love you baby, in every way, in e-very way, y-eah"

Em, B, Am | Em, B, Am, B <-- (Looking for a better chord to replace the second B)

e|---------2------------------2---------2------------------------------------|
B|---------4----1-------------4----1----4------------------------------------|
G|---------4----2-------------4----2----4------------------------------------|
D|----2----4----2--------2----4----2----4------------------------------------|
A|----2----2-------------2----2---------2------------------------------------|
E|---------2------------------2---------2------------------------------------|

[Verse]

Note the small variance in the first measure

e|--0-0-0----0-0-0-------------0-0-0----0-0-0----0-0-0----0-0-0-0----0-0-0-0-|
B|--------------------4-4-4--------------------------------------------------|
G|---------------------------------------------------------------------------|
D|--2-2-2----2-2-2----1-1-1----2-2-2----2-2-2----2-2-2----2-2-2-2----2-2-2-2-|
A|---------------------------------------------------------------------------|
E|---------------------------------------------------------------------------|

Second measure retains the same structure

e|--0-0-0----0-0-0----0-0-0----0-0-0----0-0-0----0-0-0---------------0-0-0-0-|
B|--------------------------------------------------------4-4-4-4------------|
G|---------------------------------------------------------------------------|
D|--2-2-2----2-2-2----2-2-2----2-2-2----2-2-2----2-2-2----1-1-1-1----2-2-2-2-|
A|---------------------------------------------------------------------------|
E|---------------------------------------------------------------------------|


[Chorus]

The chorus is played twice in this section.

Em, B, Am | Em, B, Am, B

e|---------2------------------2---------2------------------------------------|
B|---------4----1-------------4----1----4------------------------------------|
G|---------4----2-------------4----2----4------------------------------------|
D|----2----4----2--------2----4----2----4------------------------------------|
A|----2----2-------------2----2---------2------------------------------------|
E|---------2------------------2---------2------------------------------------|

Em, B, Am | Em, B, Am, B

e|---------2------------------2---------2------------------------------------|
B|---------4----1-------------4----1----4------------------------------------|
G|---------4----2-------------4----2----4------------------------------------|
D|----2----4----2--------2----4----2----4------------------------------------|
A|----2----2-------------2----2---------2------------------------------------|
E|---------2------------------2---------2------------------------------------|


[Outro]

e|--3----5-5------0---7-5-3-2-2-3----5-5----5------0----7-5-5-3-2-0-0--------|
B|-----------4------4-------------------------4------4-----------------------|
G|---------------------------------------------------------------------------|
D|---------------------------------------------------------------------------|
A|---------------------------------------------------------------------------|
E|---------------------------------------------------------------------------|
Suggest correction
Give kudos to tab author, rate the tab!
1 2 3 4 5
comments
print report bad tab
guest
You may want to rate the tab now too:
select rating
Wanna post a correction for this tab? Suggest correction